Acorazados, Carajo (tablatura) (ver 2)

Autor: EMOmusik | 33874 visualizaciones



Afinación:
1-----C
2-----G
3-----Eb
4-----Bb
5-----F
6-----Bb


Intro

Un poco de Delay

C  |-----10/3-3--2-3-2-3-2-3-2-3-2-3---------------------------||
G  |-----12/5-5--3-3-3-3-3-3-3-3-3-3---------------------------||
Eb |-----------------------------------------------------------||
Bb |-----------------------------------------------------------||
F  |-----------------------------------------------------------||
Bb |-----------------------------------------------------------||





De vez en cuando tery hace arreglos haciendo esto:

C  |-----10/3-3--2-3-2-3-2-3-2-3-2-3-----5-2-5-2---------------||
G  |-----12/5-5--3-3-3-3-3-3-3-3-3-3---------------------------||
Eb |-----------------------------------------------------------||
Bb |-----------------------------------------------------------||
F  |-----------------------------------------------------------||
Bb |-----------------------------------------------------------||

C  |-----10/3-3--2-3-2-3-2-3-2-3-2-3---------------------------||
G  |-----12/5-5--3-3-3-3-3-3-3-3-3-3-----3-0-3-0---------------||
Eb |-----------------------------------------------------------||
Bb |-----------------------------------------------------------||
F  |-----------------------------------------------------------||
Bb |-----------------------------------------------------------||



Acorazados...Duros, Duros,  en el dolor...

C  |--------- -------------------------||
G  |------7/8--------------------------||
Eb |----------------------------5555---||
Bb |---55-----77---9/10---22-2--5555---||
F  |---55-----77----------22-2--3333---||
Bb |---55-----77----------22-2---------||

C  |--------- ---------------------------||
G  |------7/8----------------------------||
Eb |-------------------------------------||
Bb |---55-----77---9/10--10-10---12--12--||
F  |---55-----77---------10-10---12--12--||
Bb |---55-----77---------10-10---12--12--|| x2


        Evitar...       q el amor...              ...Se ponga a llorar

C  |------------------------------------------------------------------||
G  |----8--8--8--8------8-8-8-8------8--8--8--8------10-10-10-10------||
Eb |----9--9--9--9------7-7-7-7------7--7--7--7------9--9--9--9-------||
Bb |----10-10-10-10-----9-9-9-9---------------------------------------||
F  |---------------------------------10-10-10-10-----12-12-12-12------||
Bb |------------------------------------------------------------------||

        Es como...      Evitaaar...                Q el sol se ponga hoy..

C  |------------------------------------------------------------------||
G  |----8--8--8--8------8-8-8-8------8--8--8--8------10-10-10-10------||
Eb |----9--9--9--9------7-7-7-7------7--7--7--7------9--9--9--9-------||
Bb |----10-10-10-10-----9-9-9-9---------------------------------------||
F  |---------------------------------10-10-10-10-----12-12-12-12------||
Bb |------------------------------------------------------------------||



       Inutil es tratar...

C  |-----------------||
G  |-----------------||
Eb |-----------------||
Bb |------5-5-555-5--||
F  |------5-5-555-5--||
Bb |------5-5-555-5--||



Cenizas de Gloria... Igual q INTRO




Aguantar y resistir... Con Delay

C  |-----------------------------------------------------------||
G  |------7h8p7------------------------------------------------||
Eb |----9--------9-7-9--9-7------------------------------------||
Bb |------------------------10--10-9---------------------------||
F  |---------------------------------10------------------------||
Bb |-----------------------------------------------------------||


Evitar q el amor se ponga a llorar...

Solo 1


      Inutil es... Inutil fue... Inutil escapar...


C  |-----------------------------------------------------------||
G  |-----------------------------------------------------------||
Eb |-----------------------------------------------------------||
Bb |-----7--7--7--------9-9-9------------10-10-10-10-----------||
F  |------7--7--7--------9-9-9------------10-10-10-10----------||
Bb |----7--7--7--------9-9-9------------10-10-10-10------------||


        Acaso... no lo vamos a enfrentaaaaaaaaar

C  |-----------------------------------------------------------||
G  |-----------------------------------------------------------||
Eb |-----------------------------------------------------------||
Bb |-----7-7-7--------9-9-9--------12-12-12-12-12-12-12--------||
F  |------7-7-7--------9-9-9-------12-12-12-12-12-12-12--------||
Bb |----7-7-7--------9-9-9---------12-12-12-12-12-12-12--------||


Acorazados... duros, duros en el dolor...

Evitar q el amor se ponga a llorar, es como evitar,
q el sol se ponga hoy

Evitar q el amor se ponga a llorar, es como evitar,
q el sol se ponga hoy


Evitar el amor... Inutil es tratar...Evitar el amor... q el amor no llore


C  |--------------------------------------||
G  |--------------------------------------||
Eb |--------------------------------------||
Bb |----101010-10-10------141414-14-14----||
F  |----101010-10-10------141414-14-14----||
Bb |----101010-10-10------141414-14-14----||


Solo 2. Tambien con base:
C  |--------------------------------------||
G  |--------------------------------------||
Eb |--------------------------------------||
Bb |----101010-10-10------141414-14-14----||
F  |----101010-10-10------141414-14-14----||
Bb |----101010-10-10------141414-14-14----||

Bueno
temazo de Carajo espero q les guste
dedicado a "ella"
Resistir y Seguir





Comentarios del colaborador: www.lacuerda.com

Calificar esta versión:
Aviso: Este fichero es trabajo propio de su transcriptor y representa su interpretación personal de la canción. El material contenido en esta página es para exclusivo uso privado, por lo que se prohibe su reproducción o retransmisión, así como su uso para fines comerciales.
Más versiones de Acorazados, Carajo
Acorazados
tablatura
Acorazados (ver 2)
tablatura
Descubre más canciones de Carajo