Navidad, Canciones Infantiles (tablatura) (ver 3)

Autor: Anónimo | 22821 visualizaciones

Es un tab muy sencillo pero es 100% correcto, se los aseguro....
Simplemente kise regresarle un poko de lo mucho que me a
dado este sitio. Aki Va

e------5-3-1---------5-3-1----------6-5-3----8-8-6-3-5-
B------------1-------------3--3-3---------5------------
G--5-5----------5-5------------------------------------
D------------------------------------------------------
A------------------------------------------------------
E------------------------------------------------------

e------5-3-1--------5-3-1---------6-5-3-8-8-8--8-10-8-6-3-1-
B------------1-------------3--3-3---------------------------
G--5-5----------5-5-----------------------------------------
D-----------------------------------------------------------
A-----------------------------------------------------------
E-----------------------------------------------------------

e--5-5-5--5-5-5--5-8-1-3-5---6-6-6--6-6-5-5--5-5-5-3-3-1-3-8-
B------------------------------------------------------------
G------------------------------------------------------------
D------------------------------------------------------------
A------------------------------------------------------------
E------------------------------------------------------------

e--5-5-5--5-5-5--5-8-1-3-5---6-6-6--6-6-5-5--5-5-8-8-6-3-1-
B----------------------------------------------------------
G----------------------------------------------------------
D----------------------------------------------------------
A----------------------------------------------------------
E----------------------------------------------------------


Para Tere aunke sea la 1er navidad q no pasemos juntos en muxo tiempo
Te extraño a chorros de teporocho :(
Calificar esta versión:
Aviso: Este fichero es trabajo propio de su transcriptor y representa su interpretación personal de la canción. El material contenido en esta página es para exclusivo uso privado, por lo que se prohibe su reproducción o retransmisión, así como su uso para fines comerciales.
Más versiones de Navidad, Canciones Infantiles
Navidad
tablatura
Navidad (ver 2)
tablatura
Navidad (ver 3)
tablatura
Descubre más canciones de Canciones Infantiles