Navidad, Canciones Infantiles (tablatura) (ver 2)

Autor: Anónimo | 42165 visualizaciones

e-------------------------------------
b-0-0-0--0-0-0--0-3-----0-------------
g-------------------0-2---------------
d-------------------------------------
a-------------------------------------
e-------------------------------------

e-------------------------------------
b-1-1-1--1-0-0--0-----0---3-----------
g-----------------2-2---2-------------
d-------------------------------------
a-------------------------------------
e-------------------------------------

e-------------------------------------
b-0-0-0--0-0-0--0-3-----0-------------
g-------------------0-2---------------
d-------------------------------------
a-------------------------------------
e-------------------------------------




e------------------------------------- b-1-1-1--1-0-0--3-3-1----------------- g---------------------2-0------------- d------------------------------------- a------------------------------------- e------------------------------------- e------------------------------------- b---0----------0----------1-0--------- g-----2-0--------2-0----------2------- d-0-------0--0-------2--2-------4----- a------------------------------------- e------------------------------------- e------------------------------------- b-3-3-1---0--------------------------- g-------2----------------------------- d------------------------------------- a------------------------------------- e------------------------------------- e------------------------------------- b---0----------0----------1-0--------- g-----2-0--------2-0----------2------- d-0-------0--0-------2--2------------- a------------------------------------- e------------------------------------- e---------0--------------------------- b-3-3-3-3---3-1-----3----------------- g---------------2-0------------------- d------------------------------------- a------------------------------------- e------------------------------------- e------------------------------------- b-0-0-0--0-0-0--0-3-----0------------- g-------------------0-2--------------- d------------------------------------- a------------------------------------- e------------------------------------- e------------------------------------- b-1-1-1--1-0-0--3-3-1----------------- g---------------------2-0------------- d------------------------------------- a------------------------------------- e------------------------------------- ESPERO QUE LES GUSTE...
Calificar esta versión:
Aviso: Este fichero es trabajo propio de su transcriptor y representa su interpretación personal de la canción. El material contenido en esta página es para exclusivo uso privado, por lo que se prohibe su reproducción o retransmisión, así como su uso para fines comerciales.
Más versiones de Navidad, Canciones Infantiles
Navidad
tablatura
Navidad (ver 2)
tablatura
Navidad (ver 3)
tablatura
Descubre más canciones de Canciones Infantiles