La Lechuza, Canciones Del Jardin (tablatura) (ver 2)

Autor: sudario45 | 37316 visualizaciones

e||---------------|---------------|--------------|--------------|
B||---------------|---------------|--------------|--------------|
G||---------------|---------------|--------------|--------------|
D||--------6------|--------6------|---6--7--9----|--6--7--9-----|
A||--7--9-----7---|--7--9-----7---|--------------|--------------|
E||---------------|---------------|--------------|--------------|


e||---------------|---------------|--------------|--------------|
B||---------------|---------------|--------------|--------------|
G||---------------|---------------|--------------|--------------|
D||--------6------|--------6------|---6--7--9----|--6--7--9-----|
A||--7--9-----7---|--7--9-----7---|--------------|--------------|
E||---------------|---------------|--------------|--------------|


e||---------------|---------------|--------------|--------------|
B||---------------|---------------|--------------|--------------|
G||---------------|---------------|--------------|--------------|
D||-9-11-9-7-6----|-9-11-9-7-6----|--6-7-6-------|--6-----------|
A||-------------7-|-------------7-|--------7-9-7-|-----7--9-----|
E||---------------|---------------|--------------|--------------|


e||---------------|
B||---------------|
G||---------------|
D||--6------------|
A||-----7---9-----|
E||---------------|
Calificar esta versión:
Aviso: Este fichero es trabajo propio de su transcriptor y representa su interpretación personal de la canción. El material contenido en esta página es para exclusivo uso privado, por lo que se prohibe su reproducción o retransmisión, así como su uso para fines comerciales.
Más versiones de La Lechuza, Canciones Del Jardin
La Lechuza
tablatura
La Lechuza (ver 2)
tablatura
Descubre más canciones de Canciones Del Jardin