La Lechuza, Canciones Del Jardin (tablatura)

Autor: lechuzero | 38293 visualizaciones

La lechuza, la lechuza hace... shh hace... hace shh

E|--------------------------------------------------------------|
B|--------------------------------------------------------------|
G|--5-7-9-5-5-7-9-5--9-10---9-10--------------------------------| 
D|--------------------------------------------------------------|
A|--------------------------------------------------------------|
E|--------------------------------------------------------------|

Quiero que los nenes como la lechuza hagan shhh... hagan shhh...

E|--7-9-7---------7-9-7-----------------------------------------|
B|--------10-9----------10-9----7-0--7-0------------------------|
G|-------------9-------------9----------------------------------| 
D|--------------------------------------------------------------|
A|--------------------------------------------------------------|
E|--------------------------------------------------------------|

Comentarios del colaborador: Sacada a oido por mi :D

Calificar esta versión:
Aviso: Este fichero es trabajo propio de su transcriptor y representa su interpretación personal de la canción. El material contenido en esta página es para exclusivo uso privado, por lo que se prohibe su reproducción o retransmisión, así como su uso para fines comerciales.
Más versiones de La Lechuza, Canciones Del Jardin
La Lechuza
tablatura
La Lechuza (ver 2)
tablatura
Descubre más canciones de Canciones Del Jardin