Todo Cambio, Camila (tablatura) (ver 3)

Autor: Anónimo | 32719 visualizaciones

Camila - Todo Cambio

Intro:

e|------------------------------------------------------------|
b|------------------------------------------------------------|
g|-------------------------------10-12S13-10?12s13-12-10-12---|
D|--------10-10h12---------10-12------------------------------|
A|-11h12------------10h12-------------------------------------|
E|------------------------------------------------------------|

e|--------------------------8/10/8----------------------------------------|
b|--------------------8h10--8/10/8--13s13p13------------------------------|
g|-------10-12/13/10----------------12s14p12--10-------10-10h12-----------|
D|--10-12----------------------------------------10h12----------10-11-10--|
A|------------------------------------------------------------------------|
E|------------------------------------------------------------------------|


VERSO 1:

F      F7              A#     A#m
Todo cambió, cuando te vi
F                     F7        A#       A#m
De blanco y negro a color, me convertí
          Gm               Am
y fue tan fácil, quererte tanto,
A#             Am
Algo que no imaginaba,
A#                 C     C7
Fue entregarte mi amor con una mirada.

VERSO 2:

(riff 0)

F      F7(riff 1)      A#(riff 2)  A#m
Todo tembló, dentro de mí

F                 F7 (riff 1)          A#(riff 3)  A#m
El universo escribió, que fueras para mí

     Gm(Riff 4)       Am
Y fue tan fácil quererte tanto

A#(riff 5)             Am (riff 6)
Algo que no imaginaba

A#                  Am
Fue perderme en tu amor
              A#
Simplemente pasó
               C
y todo tuyo ya soy.

CORO:
          A#                  C
Antes que pasé más tiempo contigo amor
              F                        F7
Tengo que decir que eres el amor de mi vida.
           A#                 C
Antes que te ame más, escucha por favor
          F              A#
Déjame decir que todo te di.
       Gm
Y no hay, como explicar
        Am
Pero menos, dudar
      A#              C
Simplemente así lo sentí
           A#
Cuando te vi.

VERSO 2:

(riff 7)

F          F7(riff 1) A#     A#m(riff 8)
Me sorprendió todo de ti

F                     F7         A# (riff 9)    A#m
De blanco y negro a color, me convertí

              Gm(riff 10)    Am
Sé que no es fácil, decir te amo

A#                 Am(riff 11)
Yo tampoco lo esperaba

A#             Am
Pero así es el amor

   A#                 C7
Simplemente pasó y todo tuyo ya soy

CORO:

         A#                  C
Antes que pasé más tiempo contigo amor
              F                        F7
Tengo que decir que eres el amor de mi vida,
           A#                 C
Antes que te ame mas, escucha por favor
          F              A#
Déjame decir que todo te di.
       Gm
Y no hay, como explicar
        Am
Pero menos, dudar
      A#              C
Simplemente así lo sentí,
           A# (riff 12)
Cuando te vi.
:________________________________:

Los Riff son los siguientes:

riff 0
e-------------------------------|
b-------------------------------|
g-10----10-----------------10p2-|
d-10h12-10-----------------10p3-|
a-----------10h12---10---8------|
E-------------------------------|

riff 1
e--x-13/------|
b--x-13/------|
g-------------|
d-------------|
a-------------|
E-------------|

riff 2
e--x-13/----------------------------x-13/--|
b--x-13/----13-----13---------------x-13/--|
g--------15--------12------------2---------|
d--------------15------10-10h12/-3---------|
a------------------------------------------|
E------------------------------------------|

riff 3
e--------------------|
b--------------------|
g---------10h12-10~--|
d-8/10h12------------|
a--------------------|
E--------------------|

riff 4
e------------------------|
b------------------------|
g--------10/--------10/--|
d-10h12------10h12-------|
a------------------------|
E------------------------|

riff 5
e---------------|
b---------------|
g---14s15-------|
d----------15---|
a---------------|
E---------------|

riff 6
e--------------------------------------------------------|
b--------------------------------------------------------|
g--9s10-9----------10~----10~-------10-------10-12~-10/--|
d---------10-10s12-----12-----10h12----10h12--------10/--|
a--------------------------------------------------------|
E--------------------------------------------------------|

riff 7
e-----------------------------------|
b-----------13h13-13----------------|
g-10----10--12h14-12--10----10/--2--|
d-10h12-10------------10h12-10/--3--|
a-----------------------------------|
E-----------------------------------|

riff 8
e---x13s3-------13h15--------------------|
b---x13s3-------13s15--------------------|
g----------------------------10-10~-10s3-|
d-----------------------------------10s3-|
a----------------------------------------|
E----------------------------------------|

riff 9
e-------------------|
b-------------------|
g--10-10h12---------|
d-----------10h11~--|
a-------------------|
E-------------------|

riff 10
e--------------------------|
b--------------------------|
g--------10-12s3------10~--|
d--10h12--------10h12------|
a--------------------------|
E--------------------------|

riff 11
e-----------------------------------------------------------------------|
b---13h15----12-12------------------------------------------------------|
g---x-----13-------10-12-12-10----------10~-------10~-------10-12~--10/-|
d---x--------------------------10-10s12-----10h12-----10h12---------10/-|
d-----------------------------------------------------------------------|
a-----------------------------------------------------------------------|
E-----------------------------------------------------------------------|

riff 12
e-------------------|
b-------------------|
g-------------------|
d--10h12-10---------|
a-----------10h12---|
E-------------------|
Aviso: Este fichero es trabajo propio de su transcriptor y representa su interpretación personal de la canción. El material contenido en esta página es para exclusivo uso privado, por lo que se prohibe su reproducción o retransmisión, así como su uso para fines comerciales.
Más versiones de Todo Cambio, Camila
Todo Cambio
acordes
Todo Cambio (ver 2)
acordes
Todo Cambio (ver 3)
acordes
Todo Cambio (ver 4)
acordes
Todo Cambio (ver 5)
acordes
Todo Cambio
tablatura
Todo Cambio (ver 2)
tablatura
Todo Cambio (ver 3)
tablatura
Todo Cambio (ver 4)
tablatura
Todo Cambio
teclado
Descubre más canciones de Camila

Comentarios en Facebook: