De Mí, Camila (acordes) (ver 6)

Autor: lizeth599 | 16621 visualizaciones

aa5ambmeemg
G                         Bm

E ----------------3--------------------------------------------------------
A -----------------------------------------2-------------------------------
D ----2s4---------0---0--------------------------4---4---4-----------------
G ---------2------0-----0--------2-4-2-----4-------4---4---4---------------
B ----------------0-------0--0---------------------------------------------
E -------------------------------------------------------------------------
                  G                      A                 Bm

E ----------------3--------------------------------------------------------
A --------------------------------------0-----------------2----------------
D ----2s4---------0---0----------0---------------2---------4------4--------
G ---------2------0----0----------0-------------2-2---0-----4----4---------
B ----------------0------0-0------------2-020----------------3--3----------
E ------------------------------------------------------------2------------




G Nunca Había Sentido Algo Así Em La vida Me mantuvo Siempre En Paz E Llegaste a Abrir Las puertas del Dolor A5 G Y a Regalar la Soledad. G Tu Piel Enveneno Mi corazón Em Dejándome En completa Oscuridad E Y Asi En lugar De Olvidarte Yo A5 G Te Fui Queriendo Mucho Más. Em Y Ahora Estas Aquí A5 Viéndome Sufrir, Am Dime, Como debo Hacer Para Olvidarme A De Tus besos y Sacarte Para Siempre G E G E De mí, De mí, De mí, De mí. G Lo Supe En el Momento En Que te vi Em Quererte iba A dolerme De verdad E Pero Volví A mirarte Y Comprendí A5 G Que Iría Contigo Hasta El Final. Em Y Ahora Estas Aquí A5 Viéndome Sufrir, Am Dime, Como debo Hacer Para Olvidarme A De Tus besos y Borrar Tu Nombre G E G E De mí, De mí, De mí, De mí. Em Intente Alejarme A5 No pensarte Más, No pensarte Más Em Me Dolió Entregarme A5 Como Nunca Lo hice Jamás. e.--------------------------------------------------------------- B.--------------------------------------------------------------- G.---------------------0-0-------------------------------0-0-2-4- D.-0-0-2-2-0-0[2s3]-2-3----2-3-0----------0-2-3-2-0-2-2-3-------- A.-------------------------------2--2-0[2]----------------------- E.---------------------------------2-2--------------------------- e.-----------------------------0--2-2-2-2-2-3-2-2-2-2-5-4-2-0-2-2-2-2-2-3 B. ------2-3-2---2-3-2-----0-2-3-3--------------------------------------- G.-4-4-4-----2-4-----2-4-4----------------------------------------------- D.----------------------------------------------------------------------- A.----------------------------------------------------------------------- E.----------------------------------------------------------------------- G E G E De mí, De mí, De mí, De mí.
Calificar esta versión:
Aviso: Este fichero es trabajo propio de su transcriptor y representa su interpretación personal de la canción. El material contenido en esta página es para exclusivo uso privado, por lo que se prohibe su reproducción o retransmisión, así como su uso para fines comerciales.
Más versiones de De Mí, Camila
De Mi
acordes
De Mí (ver 2)
acordes
De Mi (ver 3)
acordes
De Mi (ver 4)
acordes
De Mi (ver 5)
acordes
De Mí (ver 6)
acordes
De Mi
tablatura
Descubre más canciones de Camila