Alejate De Mi, Camila (tablatura) (ver 2)

Autor: Anónimo | 34292 visualizaciones

Espero que les guste esta
cancion yo la modifiqué un poco
suena igual a la cancion original
si quieren pueden usar el capo en
el 2º traste o solamente asi B ok
y el A#m es en el 6º traste ok
en el primer verso entra arpegiando como en el inicio abajo se los dejo
INTRO:

e------------------------------------------------------
B---6-7----7--6-------4-----(3)---6-7----7--6-----4----
G-8---8---8---6---6---4---4------8--8---8---6--6--4--4-
D-----8--8----6--6----4--4----------8--8----6-6---4-4--
A------------------------------------------------------
E------------------------------------------------------



     D#m                     C#                       B
     Alejate de mi y hazlo pronto antes de que te mienta.
e----------------------------------------------------------------
B---6-7-----------7----------6-------------------------4-----(3)-
G-8---8----------8-----------6-------------6-----------4---4-----
D-----8---------8------------6------------6------------4--4------
A----------------------------------------------------------------
E----------------------------------------------------------------
         D#m                            C#               B
      Tu cielo se hace gris , yo ya camino bajo la tormenta.
e----------------------------------------------------------------
B---6-7-----------7----------6-------------------------4-----(3)-
G-8---8----------8-----------6-------------6-----------4---4-----
D-----8---------8------------6------------6------------4--4------
A----------------------------------------------------------------
E----------------------------------------------------------------
         D#m                   C#                  B
       Alejate de mi, escapa ve que ya no debo verte.
e----------------------------------------------------------------
B---6-7-----------7----------6-------------------------4-----(3)-
G-8---8----------8-----------6-------------6-----------4---4-----
D-----8---------8------------6------------6------------4--4------
A----------------------------------------------------------------
E----------------------------------------------------------------
         D#m                           C#                   B
       Entiende que aunque pida que te vayas, no quiero perderte.
e----------------------------------------------------------------
B---6-7-----------7----------6-------------------------4-----(3)-
G-8---8----------8-----------6-------------6-----------4---4-----
D-----8---------8------------6------------6------------4--4------
A----------------------------------------------------------------
E----------------------------------------------------------------

VERSO:

    A#m          D#m
La luz ya, no alcanza?..

     B                                 C#
No quieras caminar sobre el dolor descalza?

    A#m     D#m
Un Angel te cuida??.

   B                                            C#
Y puso en mi boca la verdad para mostrarme la salida?.


CORO:

    B         C#     F#
Y alejate de mi amor?.

                       C#
Yo se que aun estas a tiempo?.

                          D#m
No soy quien en verdad parezco?.

      C#                B            C#
y perdon no soy quien crees yo no cai del cielo

 B                C#      F#
Si aun no me lo crees amor??

                        C#
y quieres tu correr el riesgo

                        D#m
veras que soy realmente bueno

        C#              B    C#
en engañar y hacer sufrir  uooo
                                  B------------
        D#m      C#   B           G---10h12--10
a quien mas quiero     (x2)       D------------


  D#m                         C#                 B
Alejate de mi pues tu bien sabes que no te merezco

    D#m                          C#                 B
quiciera arrepentirme, ser el mismo y no decirte esto

  D#m                   C#                 B
Alejate de mi, escapa, vete ya no debo verte

   D#m                           C#                  B
Entiende que aunque pida que te vayas no quiero perderte.


VERSO:
Palm mute en todas las notas de este verso

    A#m          D#m
La luz ya, no alcanza?..

     B                                C#
No quieras caminar sobre el dolor descalza?

    A#m     D#m
Un Angel te cuida??.

   B                                             C#
Y puso en mi boca la verdad para mostrarme la salida?.


CORO:

     B        C#     F#
Y alejate de mi amor?.

                       C#
Yo se que aun estas a tiempo?.

                          D#m
No soy quien en verdad parezco?.

      C#                B            C#
y perdon no soy quien crees yo no cai del cielo

  B               C#      F#
Si aun no me lo crees amor??

                         C#
y quieres tu correr el riesgo

                        D#m
veras que soy realmente bueno

        C#              B            C#
en engañar y hacer sufrir y hacer llorar

               D#m  C#    B  C#
a quien mas quiero uooo uooo uoo



    B        C#     F#
Y alejate de mi amor?.

                       C#
Yo se que aun estas a tiempo?.

                          D#m
No soy quien en verdad parezco?.

      C#                B           C#
y perdon no soy quien crees yo no cai del cielo

  B              C#     F#
Si aun no me lo crees amor??

                         C#
y quieres tu correr el riesgo

                        D#m
veras que soy realmente bueno

        C#              B   C#
en engañar y hacer sufrir  uoo

                                    B------------
        D#m      C#   B             G---10h12--10
a quien mas quiero                  D------------

         D#m    C#  B  F#
a quien mas quiero
Aviso: Este fichero es trabajo propio de su transcriptor y representa su interpretación personal de la canción. El material contenido en esta página es para exclusivo uso privado, por lo que se prohibe su reproducción o retransmisión, así como su uso para fines comerciales.
Más versiones de Alejate De Mi, Camila
Alejate De Mi
acordes
Alejate De Mi (ver 2)
acordes
Alejate De Mi (ver 3)
acordes
Alejate De Mi (ver 4)
acordes
Alejate De Mi (ver 5)
acordes
Aléjate De Mi (ver 6)
acordes
Aléjate De Mí (ver 7)
acordes
Alejate De Mi
tablatura
Alejate De Mi (ver 2)
tablatura
Alejate De Mi
bajo
Aléjate De Mí
teclado
Descubre más canciones de Camila

Comentarios en Facebook: