Rebelde, Agitador Y Revolucionario, Callejeros (tablatura) (ver 3)

Autor: Anónimo | 27830 visualizaciones

Intro:

  Cm#  Am  Fm#  Am
E|-x---5----2---5-
A|-4---7----4---7-
D|-6---7----4---7-
G|-6---6----3---6-
B|-5---5----2---5-
e|-4---5----2---5-

"Hoy me sacrifican como cerdo por no estar de acuerdo"

D|-6-6-6-6-6-6-6-6-6-6-4/2/4/6~
PM:*******************

"con conservas y militares"

G|-8h9-8-6-4-6-1~

"por no querer altares de oro y sangre"

E|-5-4-3-0h2---0--
A|--7-6-5----4----
D|--------------2-
G|--------------4-
B|--------------5-

"me acusan de rebelde, agitador y revolucionario"

D|-6-6-6-6-6-6-6-6-6-6-4/2/4/6~
PM:*******************

"por no pensar lo mismo y decirlo"

G|-8h9-8-6-4-6-1~

D|-6-6-6-6-6-6-6-6-6-6-4/2-7-6~
PM:*******************

Cm#                         Am
Cae el agua desde el cielo, sobre un mar de desconsuelo
Fm#                           Am   
se hace eterno este silencio lleno de real desolación
    G#7         F#7              EM                     G#7
 Mi madre me llamo Jesus y hoy mi pueblo me llora en la cruz
EM                 G#7       F#7                   EM
 pero van a ver un dia, todo cambiara, habrá una iglesia 
         G#7            F#7           EM
 que comprenderá al reprimido y no al represor
          G#7          F#7               EM
 y sera honesta como lo fui yo o tal vez no...

 o tal vez no... o tal vez no... o tal vez no... o tal vez no

Solo:

D|-6-6-6-6-6-6-6-6-6-6-4/2/4/6~--------------7-6-5-2/4-2-2-
G|-----------------------------8h9-8-6-4-6-1~-9-8-7---6--4-
B|-------------------------------------------------------5-
PM:*******************

D|-6-6-6-6-6-6-6-6-6-6-4/2/4/6~--------------6-6-6-6-6-6-6-6-6-6-4/2-7-6~
G|-----------------------------8h9-8-6-4-6-1~----------------------------
B|-----------------------------------------------------------------------
PM:*******************                       *******************

Cm#                         Am
 la espina ya está clavada, no hay perdón para el que aplasta
Fm#                         Am
 contando una sola historia a los que no encuentran solución
    G#7         F#7              EM                     G#7
 Mi madre me llamo Jesus y hoy mi pueblo me llora en la cruz
EM                 G#7       F#7                   EM
 pero van a ver un dia, todo cambiara, habrá una iglesia 
         G#7            F#7           EM
 que comprenderá al reprimido y no al represor
          G#7          F#7               EM
 y sera honesta como lo fui yo o tal vez no...

 o tal vez no... o tal vez no... o tal vez no... o tal vez no...

Fin:

  Cm#  Am  Fm#  Am
E|-x---5----2---5~
A|-4---7----4---7~
D|-6---7----4---7~
G|-6---6----3---6~
B|-5---5----2---5~
e|-4---5----2---5~

Comentarios del colaborador: g#7 f#7 em d|--x-------x------9- g|-11------9-----9- b|-12-----10-----9- e|-11------9------x- palm mute: (comienzo)***(fin) ~: dejar sonando

Aviso: Este fichero es trabajo propio de su transcriptor y representa su interpretación personal de la canción. El material contenido en esta página es para exclusivo uso privado, por lo que se prohibe su reproducción o retransmisión, así como su uso para fines comerciales.
Más versiones de Rebelde, Agitador Y Revolucionario, Callejeros
Rebelde, Agitador Y Revolucionario
acordes
Rebelde, Agitador Y Revolucionario
tablatura
Rebelde, Agitador Y Revolucionario (ver 2)
tablatura
Rebelde, Agitador Y Revolucionario (ver 3)
tablatura
Descubre más canciones de Callejeros

Comentarios en Facebook: