Rebelde, Agitador Y Revolucionario, Callejeros (tablatura)

Autor: Anonimo | 34609 visualizaciones

Los acordes de la otra tablatura están bien, acá les pongo sólo los arreglos y el solo.
Falta un arreglo que suena en los coros, se escucha muy bajito.


30-12-04
NO OLVIDAR, SIEMPRE RESISTIR



Rebelde, Agitador Y Revolucionario
(Callejeros)


Riff 1:

  |Palm Mute|
e|------------------------------------------|
B|------------------------------------------|
G|----------------------8bbb10r8-6-4-6------|
D|------------------6~-----------------6~---|
A|-7777777777-9-7-9-------------------------|
E|------------------------------------------|


Riff 2:

  |Palm Mute|
e|------------------------------|
B|------------------------------|
G|----------------7-6~----------|
D|-7777777777---7---------------|
A|------------9-----------------|
E|------------------------------|


Riff 1
Hoy me sacrifican como un cerdo por no estar de acuerdo,
con conservas y militares por no querer altares de oro y sangre,
Riff 1
Me acusan de rebelde, agitador y revolucionario por no pensar lo mismo y decirlo
Riff 2
que los que abusan de mi gente a diario,
Cae el agua desde el cielo, sobre un mar de desconsuelo
se hace eterno este silencio lleno de real desolación

Mi madre me llamó Jesús y hoy mi pueblo me llora en la Cruz,
pero van a ver un día todo cambiará, habrá una iglesia que comprenderá
al reprimido y no al represor y será honesta como lo fui yo,
o tal vez no...
o tal vez no...
o tal vez no...
o tal vez no...
o tal vez no...


Solo

  |Palm Mute|
e|-----------------------------------------------------------------------|
B|-----------------------------------------------------------------------|
G|----------------------8bbb10r8-6-4-6--------9---8---6/8----------------|
D|------------------6~-----------------6~---7-7-7-7-7-7/9--9~~-----------|
A|-7777777777-9-7-9----------------------------------------7~~-----------|
E|-----------------------------------------------------------------------|

  |Palm Mute|                              |Palm Mute|
e|-----------------------------------------------------------------------|
B|-----------------------------------------------------------------------|
G|----------------------8bbb10r8-6-4-6---------------------7-6~----------|
D|------------------6~-----------------6~---7777777777---7---------------|
A|-7777777777-9-7-9------------------------------------9-----------------|
E|-----------------------------------------------------------------------|


La espina ya esta clavada, no hay perdón para el que aplasta
contando una sola historia a los que no encuentran solución

Mi madre me llamó Jesús y hoy mi Pueblo me llora en la Cruz,
pero van a ver un día todo cambiará, habrá una iglesia que comprenderá
al reprimido y no al represor y será honesta como lo fui yo o tal vez no,
o tal vez no...
o tal vez no...
o tal vez no...
o tal vez no...

Fuente original: LaCuerda
Colaborador original: Lei77o [leandroramone@hotmail.com]
Aviso: Este fichero es trabajo propio de su transcriptor y representa su interpretación personal de la canción. El material contenido en esta página es para exclusivo uso privado, por lo que se prohibe su reproducción o retransmisión, así como su uso para fines comerciales.
Más versiones de Rebelde, Agitador Y Revolucionario, Callejeros
Rebelde, Agitador Y Revolucionario
acordes
Rebelde, Agitador Y Revolucionario
tablatura
Rebelde, Agitador Y Revolucionario (ver 2)
tablatura
Rebelde, Agitador Y Revolucionario (ver 3)
tablatura
Descubre más canciones de Callejeros

Comentarios en Facebook: