Pompeya, Callejeros (tablatura) (ver 2)

Autor: Anónimo | 32651 visualizaciones

E-10h12--12-12-12-12--10h12h10---------------------------|
B------------------------------12--10-10h12--12-12-12-12-|
G--------------------------------------------------------|
D--------------------------------------------------------|
A--------------------------------------------------------|
E--------------------------------------------------------|

E-----------------------------------------------|
B-10h12h10--------------------------------------|
G---------12-11-9--9-11-12-11-9h11p9---9-9h11-9-|
D------------------------------------12---------|
A-----------------------------------------------|
E-----------------------------------------------|

E-10h12--12-12-12-12--10h12h10---------------------------|
B------------------------------12--10-10h12--12-12-12-12-|
G--------------------------------------------------------|
D--------------------------------------------------------|
A--------------------------------------------------------|
E--------------------------------------------------------|

E-----------------------------------------------|
B-10h12h10--------------------------------------|
G---------12-11-9--9-11-12-11-9h11p9---9-9h11-9-|
D------------------------------------12---------|
A-----------------------------------------------|
E-----------------------------------------------|


E---------------------------------8-8------7-------10----|
B-------8-8-----7-7-----8--8--8---8-8----8-------10------|
G-------------------7s9---9--9----9----9-----9s11----11--|
D-7-8-9-----9-7------------------------------------------|
A--------------------------------------------------------|
E--------------------------------------------------------|

E-12-10h12p10-------10h12-----------------------------------|
B-------------13-12-------13-12-9------8------7------8-8----|
G------------------------------------------------7s9----9---|
D----------------------------------7s9--9---7---7--------10-|
A-----------------------------------------------------------|
E-----------------------------------------------------------|



E---------------------------0-----|
B------8-8----7-7-----------0-----|
G-----------------------5---0-----|
D-7-8-9---9--7---------5-5--2-----|
A-----------------5-6-7-----2-----|
E---------------------------0-----|
Aviso: Este fichero es trabajo propio de su transcriptor y representa su interpretación personal de la canción. El material contenido en esta página es para exclusivo uso privado, por lo que se prohibe su reproducción o retransmisión, así como su uso para fines comerciales.
Más versiones de Pompeya, Callejeros
Pompeya
acordes
Pompeya
tablatura
Pompeya (ver 2)
tablatura
Descubre más canciones de Callejeros

Comentarios en Facebook: