Pompeya, Callejeros (tablatura)

Autor: Anónimo | 15586 visualizaciones

Intro:

   Em                D         Em             C
e|/12-12-12-12-12-8h10-8-7-|5/7-7-7-7-7-3h5-3-2--|
b|-------------------------|---------------------|
g|·------------------------|---------------------|
d|·------------------------|---------------------|
a|-------------------------|---------------------|
E|-------------------------|---------------------|

  Em          D         Em
e|----------------------------|--||
b|-5--5-7-8-8-5p3h5-5-5h7p5-5-|--||
g|---------------------------·|--||
d|---------------------------·|x2||
a|----------------------------|--||
E|----------------------------|--||


   Em          D        Em          C        Em             D
e|------3-3----2-2------------8-8-----8------10-10h12-10------------||
b|---------------------8-8-8--8-8---8------10------------13-12-13h15||
g|2/3/4-----4-2----2/9--9-9-------9----9/11-------------------------||
d|------------------------------------------------------------------||
a|------------------------------------------------------------------||
E|------------------------------------------------------------------||

e|----------|------3-3----2-2-----3-3-3---2-2--------------||
b|-13-12-10-|----------------------------------------------||
g|----------|2/3/4-----4-2----2/4--4-4--2--------2---------||
d|----------|--------------------------------2-4--5-4-2-0-2||
a|----------|----------------------------------------------||
E|----------|----------------------------------------------||

Estrofas:
Em          D      Em        C
Saliendo por Almafuerte y mi pena
Em               D       Em       C
esquivando a la gente que duerme ahi
Em           D    Em             C
calles de adoquines testigos del ayer
Em      C       D             Em
pasan carretas fantasmas de la noche

Em                D     Em            C
En la esquina del bar de La Plata y Saenz
Em            D        C          Em
los borrachos se pelean como costumbre
Em          D           Em       C
voy cruzando las vias de Homero Manzi
Em      C       D             Em
que terminan en la Estación Buenos Aires


Em              D     Em          C
Llegando a la Perito pasando la feria
Em           D          C           Em
se ve oscuro el horizonte hacia ambos lados
Em         D         Em                 C
escuchás venir un tren, pero nada va a pasar
Em         D         C                 Em
la adrenalina y el miedo en el aire sentirás

   G    D   C         Em      D         C
Y voy otra vez por el mismo destino que vivo
   G      D        C         Em         D            C
barrio que alguna vez diste letra al comienzo de un sigloo

Em                D    Em             C
desde aca se siente el olor a Riachuelo
Em           D          C           Em
que viene a lo lejos desde el puehnte siniestro
Em           D       Em            C
los pibes de alcorta doblados del paco
Em           D      C           Em
te piden monedas tapando tristezas
Em               G
otros van a la murga,
Em               D
otros van a la iglesia,
  Em          D                   Em
o jalan la bolsa o viven esta cancion

e|-12----|
b|---12--|
g|-----12|
d|-------|
a|-------|
E|-------|
Aviso: Este fichero es trabajo propio de su transcriptor y representa su interpretación personal de la canción. El material contenido en esta página es para exclusivo uso privado, por lo que se prohibe su reproducción o retransmisión, así como su uso para fines comerciales.
Más versiones de Pompeya, Callejeros
Pompeya
acordes
Pompeya
tablatura
Pompeya (ver 2)
tablatura
Descubre más canciones de Callejeros

Comentarios en Facebook: