Frente Al Río, Callejeros (tablatura) (ver 2)

Autor: Anónimo | 24270 visualizaciones

INTRO:

e|-----------------------------
B|-----------------------------
G|-----------------------------
D|-5-3-------------5--5/7-5----
A|-----7-5-33--3-5-------------
E|-----------------------------

e|------------------------------
B|------------------------------
G|-/5-4-------------------------
D|------7-5-3-2-0---3--3/5-3----
A|----------------3-------------
E|------------------------------

e|-----------------------------
B|-----------------------------
G|-----4-5-5/7-5-4-5-7--7/9-7--
D|-5-7-------------------------
A|-----------------------------
E|-----------------------------

Am-G-F-G

SAXO en Am-Dm x3 - G:

e|----------55-5---------------55-5-----
B|-55-5-6-8------8-6--55-5-6-8------8-6-

e|----------55-5------------------------|
B|-55-5-6-8------8-6--3h5-3--1-3-1-3br--|

RIFF: B|-8~-6-5-3-|

VERSO

Am                           G RIFF
Paso noches hablando de vos
              F          G        Am
este es mi insólito monologo de hoy

Am                            G RIFF
Me cuelgo y me empiezo a preguntar
F                  G
si tu Quilmes jugará
           Am
en el más allá


ESTRIBILLO

C
Lo enciendo frente al Río
        G
de La Plata sin dudar
      Em
con mas ganas de creer
          F
que de pensar
Am
porque tus sueños como el viento
          G
vuelven desde tu ciudad
Am                     G
para darle a lo que siento
        F          G
algún lugar en tu eternidad

Am-Dm x3 - G (IGUAL QUE EL SAXO DE LA INTRO)

VERSO

Las estrellas se apagaron en el sur
subiste y solo brilla tu luz

Tan hermosa como Janis y su blues
hoy no te tengo
y solo cargo con mi cruz

ESTRIBILLO

Lo enciendo frente al Río
de La Plata sin dudar
con mas ganas de creer
que de pensar
porque tus sueños como el viento
vuelven desde tu ciudad
para darle a lo que siento
algún lugar en tu eternidad

Am-Dm x3 - G (IGUAL QUE EL SAXO DE LA INTRO)

VERSO

Estas historias nunca tienen fin
y mas si en este tema
hablo de mí

Los recuerdos calientan mi interior
y mas si en este tema
hablo de vos

ESTRIBILLO

Lo enciendo frente al Río
de La Plata sin dudar
con mas ganas de creer
que de pensar
porque tus sueños como el viento
vuelven desde tu ciudad
para darle a lo que siento
algún lugar en tu eternidad

Am-Dm x3 - G (IGUAL QUE EL SAXO DE LA INTRO)

VERSO

Mil canciones y una más voy a escribir
y en mil silencios
solo un nombre voy a oir

Un "Capitan" en la estación para subir
a tu espacio en algun tren
me voy a ir

ESTRIBILLO

Lo enciendo frente al Río
de La Plata sin dudar
con mas ganas de creer
que de pensar
porque tus sueños como el viento
vuelven desde tu ciudad
para darle a lo que siento
algún lugar en tu eternidad

Am-Dm x3 - G

F-G-Am



Wen, me parece q esta re bien el tema, gracias a Los invisibles
q ayudaron a sacarlo, cualkier cosa me mandan mail a
lalos_boca20@hotmail.com
Aguante el Rock n' roll y nada mas,
es algo que los chetos no pueden entender!
Aviso: Este fichero es trabajo propio de su transcriptor y representa su interpretación personal de la canción. El material contenido en esta página es para exclusivo uso privado, por lo que se prohibe su reproducción o retransmisión, así como su uso para fines comerciales.
Más versiones de Frente Al Río, Callejeros
Frente Al Río
acordes
Frente Al Río
tablatura
Frente Al Río (ver 2)
tablatura
Frente Al Río
bajo
Descubre más canciones de Callejeros

Comentarios en Facebook: