Frente Al Río, Callejeros (tablatura)

Autor: Anónimo | 35706 visualizaciones

Callejeros - Frente al Rio

Intro:
e|-------------------------|-----------------------------|
B|-------------------------|-----------------------------|
G|-------------------------|-----------------------------|
D|--5-3-2---------2-5-7b5--|--10-9-7---------------------|
A|--------5-3-3-5----------|---------10-8-7------8-10b8--|
E|-------------------------|----------------10-8---------|

e|-------------------------|
B|-------------------------|
G|------4-5-7-5-4-5-7-9b7--|
D|--5-7--------------------|
A|-------------------------|
E|-------------------------|



e|------------------------------|
B|------------------------------|
G|-14-14---12-12---10~~10---12--|
D|-14-14---12-12---10~~10---12--|
A|-12-12---10-10---8~~~8----10--|
E|------------------------------|
(Am - G - F - G)



e|-------------------------------------------------------------|
B|-------------10-10-10--------------------10-10-10------------|
G|-9-9-9-10-12----------12-10-9-9--9-10-12----------12-10-9-9--|
D|-------------------------------------------------------------|
A|-------------------------------------------------------------|
E|-------------------------------------------------------------|
(Am - Dm - Am - Dm)
e|-----------------------------------|
B|---------10-10-10------------------|
G|-9-10-12----------12-10-9---7-7br--|
D|-----------------------------------|
A|-----------------------------------|
E|-----------------------------------|
(Am - Dm - G)


---------------------------------------------------------------------------



VERSO:
e|------------------------------------------------------------|
B|-------------------------------------------------10~~-------|
G|-9~-12-10-9---------------------------------9-12------------|
D|------------12----------------10-9----10-12-----------------|
A|-----------------------------------12----------------10-12--|
E|------------------------------------------------------------|
( Am - G - F - G - Am )
Paso noches hablando de vos, este es mi............




e|---------------------------------------------------------|
B|-----------------------------------------------------10--|
G|-9----------12-10-9----------------9h10h9--9h12h9-12-----|
D|-------------------12------------------------------------|
A|---10-10-12----------------------------------------------|
E|---------------------------------------------------------|
( Am - G - F - G - Am )
Me cuelgo y me empiezo a preguntar, si tu Quilmes.......



---------------------------------------------------------------------------



ESTRIBILLO:
e|------------------------------------------------------------------------|
B|------------------------------------------------------------------------|
G|------------------------------------------------------------------------|
D|----------------------------------------------10-9-7--------------------|
A|--10-8-7-----------7-10-12-10------------------------10-8-7------8-7-8--|
E|---------10-8-8-10------------------------------------------10-8--------|
( C - G - Bm - F)
Lo enciendo frente al Río de La Plata..........................




e|------------------------------------------------------------------------|
B|------------------------------------------------------------------------|
G|------------------------------------10--------12-------10-----------12--|
D|------------------------------------10--------12-------10-----------12--|
A|-8-7-7-5-7~~~~---7-5-5-3-5~~~~------12--------10-------8------------10--|
E|------------------------------------------------------------------------|
( C - F - Am - G - F - G )
porque tus sueños como el viento vuelven................



---------------------------------------------------------------------------



e|-------------------------------------------------------------|
B|-------------10-10-10--------------------10-10-10------------|
G|-9-9-9-10-12----------12-10-9-9--9-10-12----------12-10-9-9--|
D|-------------------------------------------------------------|
A|-------------------------------------------------------------|
E|-------------------------------------------------------------|
(Am - Dm - Am - Dm)
e|-----------------------------------|
B|---------10-10-10------------------|
G|-9-10-12----------12-10-9---7-7br--|
D|-----------------------------------|
A|-----------------------------------|
E|-----------------------------------|
(Am - Dm - G)


---------------------------------------------------------------------------



VERSO:
e|------------------------------------------------------------|
B|-------------------------------------------------10~~-------|
G|-9~-12-10-9---------------------------------9-12------------|
D|------------12----------------10-9----10-12-----------------|
A|-----------------------------------12----------------10-12--|
E|------------------------------------------------------------|
( Am - G - F - G - Am )
Las estrellas se apagaron en el Sur: subiste..........




e|--------------------------------------------------------------------|
B|-----------------------------------------------------10~~-13-12-10--|
G|-9----------12-10-9----------------9h10h9--9h12h9-12----------------|
D|-------------------12-----------------------------------------------|
A|---10-10-12---------------------------------------------------------|
E|--------------------------------------------------------------------|
( Am - G - F - G - Am )
Tan hermosa, como Janis y su blues, hoy no te tengo..........



---------------------------------------------------------------------------



ESTRIBILLO:
e|------------------------------------------------------------------------|
B|------------------------------------------------------------------------|
G|------------------------------------------------------------------------|
D|----------------------------------------------10-9-7--------------------|
A|--10-8-7-----------7-10-12-10------------------------10-8-7------8-7-8--|
E|---------10-8-8-10------------------------------------------10-8--------|
( C - G - Bm - F)
Lo enciendo frente al Río de La Plata..........................




e|------------------------------------------------------------------------|
B|------------------------------------------------------------------------|
G|-----------------------------------10--------12-------10------------12--|
D|-----------------------------------10--------12-------10------------12--|
A|-8-7-7-5-7~~~~---7-5-5-3-5~~~~-----12--------10-------8-------------10--|
E|------------------------------------------------------------------------|
( C - F - Am - G - F - G )
porque tus sueños como el viento vuelven................



---------------------------------------------------------------------------



e|-------------------------------------------------------------|
B|-------------10-10-10--------------------10-10-10------------|
G|-9-9-9-10-12----------12-10-9-9--9-10-12----------12-10-9-9--|
D|-------------------------------------------------------------|
A|-------------------------------------------------------------|
E|-------------------------------------------------------------|
(Am - Dm - Am - Dm)
e|-----------------------------------|
B|---------10-10-10------------------|
G|-9-10-12----------12-10-9---7-7br--|
D|-----------------------------------|
A|-----------------------------------|
E|-----------------------------------|
(Am - Dm - G)



---------------------------------------------------------------------------



VERSO:
e|------------------------------------------------------------|
B|-------------------------------------------------10~~-------|
G|-9~-12-10-9---------------------------------9-12------------|
D|------------12----------------10-9----10-12-----------------|
A|-----------------------------------12----------------10-12--|
E|------------------------------------------------------------|
( Am - G - F - G - Am )
Estas historias nunca tienen fin y más si en este.........




e|--------------------------------------------------------------------|
B|-----------------------------------------------------10~~-13-12-10--|
G|-9----------12-10-9----------------9h10h9--9h12h9-12----------------|
D|-------------------12-----------------------------------------------|
A|---10-10-12---------------------------------------------------------|
E|--------------------------------------------------------------------|
( Am - G - F - G - Am )
Los recuerdos calientan mi interior y más..............




---------------------------------------------------------------------------



ESTRIBILLO:
e|------------------------------------------------------------------------|
B|------------------------------------------------------------------------|
G|------------------------------------------------------------------------|
D|----------------------------------------------10-9-7--------------------|
A|--10-8-7-----------7-10-12-10------------------------10-8-7------8-7-8--|
E|---------10-8-8-10------------------------------------------10-8--------|
( C - G - Bm - F)
Lo enciendo frente al Río de La Plata..........................




e|------------------------------------------------------------------------|
B|------------------------------------------------------------------------|
G|-----------------------------------10--------12-------10------------12--|
D|-----------------------------------10--------12-------10------------12--|
A|-8-7-7-5-7~~~~---7-5-5-3-5~~~~-----12--------10-------8-------------10--|
E|------------------------------------------------------------------------|
( C - F - Am - G - F - G )
porque tus sueños como el viento vuelven................



---------------------------------------------------------------------------



e|-------------------------------------------------------------|
B|-------------10-10-10--------------------10-10-10------------|
G|-9-9-9-10-12----------12-10-9-9--9-10-12----------12-10-9-9--|
D|-------------------------------------------------------------|
A|-------------------------------------------------------------|
E|-------------------------------------------------------------|
(Am - Dm - Am - Dm)
e|-----------------------------------|
B|---------10-10-10------------------|
G|-9-10-12----------12-10-9---7-7br--|
D|-----------------------------------|
A|-----------------------------------|
E|-----------------------------------|
(Am - Dm - G)



---------------------------------------------------------------------------



VERSO:
e|------------------------------------------------------------|
B|-------------------------------------------------10~~-------|
G|-9~-12-10-9---------------------------------9-12------------|
D|------------12----------------10-9----10-12-----------------|
A|-----------------------------------12----------------10-12--|
E|------------------------------------------------------------|
( Am - G - F - G - Am )
Mil canciones y una más voy a escribir. Y en mil silencios...........




e|--------------------------------------------------------------------|
B|-----------------------------------------------------10~~-13-12-10--|
G|-9----------12-10-9----------------9h10h9--9h12h9-12----------------|
D|-------------------12-----------------------------------------------|
A|---10-10-12---------------------------------------------------------|
E|--------------------------------------------------------------------|
( Am - G - F - G - Am )
Un “Capitán” en la estación para....................



---------------------------------------------------------------------------



ESTRIBILLO:
e|------------------------------------------------------------------------|
B|------------------------------------------------------------------------|
G|------------------------------------------------------------------------|
D|----------------------------------------------10-9-7--------------------|
A|--10-8-7-----------7-10-12-10------------------------10-8-7------8-7-8--|
E|---------10-8-8-10------------------------------------------10-8--------|
( C - G - Bm - F)
Lo enciendo frente al Río de La Plata..........................




e|------------------------------------------------------------------------|
B|------------------------------------------------------------------------|
G|-----------------------------------10--------12-------10------------12--|
D|-----------------------------------10--------12-------10------------12--|
A|-8-7-7-5-7~~~~---7-5-5-3-5~~~~-----12--------10-------8-------------10--|
E|------------------------------------------------------------------------|
( C - F - Am - G - F - G )
porque tus sueños como el viento vuelven................



---------------------------------------------------------------------------



e|-------------------------------------------------------------|
B|-------------10-10-10--------------------10-10-10------------|
G|-9-9-9-10-12----------12-10-9-9--9-10-12----------12-10-9-9--|
D|-------------------------------------------------------------|
A|-------------------------------------------------------------|
E|-------------------------------------------------------------|
(Am - Dm - Am - Dm)
e|-----------------------------------|
B|---------10-10-10------------------|
G|-9-10-12----------12-10-9---7-7br--|
D|-----------------------------------|
A|-----------------------------------|
E|-----------------------------------|
(Am - Dm - G)


e|-----------------------|
B|------------------10~~-|
G|----------------9------|
D|--10-9----10-12--------|
A|-------12--------------|
E|-----------------------|



---------------------------------------------------------------------------




Espero que le sirva, la sake de oido, creo que esta bien y completa
[tuve que cortar las fraces, xq sino no me dejaba subirla..]
suerte
un saludo para los pibes de La Grieta y Justicia por nuestros Callejos
elio_snma #
Aviso: Este fichero es trabajo propio de su transcriptor y representa su interpretación personal de la canción. El material contenido en esta página es para exclusivo uso privado, por lo que se prohibe su reproducción o retransmisión, así como su uso para fines comerciales.
Más versiones de Frente Al Río, Callejeros
Frente Al Río
acordes
Frente Al Río
tablatura
Frente Al Río (ver 2)
tablatura
Frente Al Río
bajo
Descubre más canciones de Callejeros

Comentarios en Facebook: