Amarrate A Una Escoba Y Vuela Lejos, Caifanes (tablatura) (ver 2)

Autor: Anónimo | 15820 visualizaciones

ES LA INTRO EN VIVO DE JAGUARES, BAJO EL AZUL DE TU
MISTERIO, HAY QUE OIRLA PARA TOCARLA A BIEN TIEMPO.

e--3--------------------------------------------------
B--3--------------------------------------------------
G--0-muchas veces llevando el tiempo------------------
D--0--------------------------------------------------
A--2--------------------------------------------------
E--3--------------------------------------------------

e--2---2------2---------------------------------------
B--3-----3-------3-----3--0H2-2-3-2-2---2-2-3-3-------
G--2-2------2--------2----0H2-2-2-2-2---2-2-4-4-------
D--0----------------------------------------4-4-------
A-----------------------------------------------------
E-----------------------------------------------------

e--3------7-9-10--2-2-----2----2----------------------
B--3--------------3-3---3----3----3-------------------
G--0-X5-----------2-2-2----2---------2----------------
D--0--------------0-0---------------------------------
A--2--------------------------------------------------
E--3--------------------------------------------------

e--5--7/99---99999/10~--------------------------------
B-----------------------------------------------------
G--6--7/99---99999/11~--------------------------------
D-----------------------------------------------------
A-----------------------------------------------------
E-----------------------------------------------------

UN SALUDO A MI AMIGO EL PERRO CON QUIEN IBA EN EL 
REMBRANDT, POSDATA, SU AMIGO PELON.

Fuente original: LaCuerda
Colaborador original: ISRAEL BITER SNORKEL [SNORKEL59@LATINMAIL]
Calificar esta versión:
Aviso: Este fichero es trabajo propio de su transcriptor y representa su interpretación personal de la canción. El material contenido en esta página es para exclusivo uso privado, por lo que se prohibe su reproducción o retransmisión, así como su uso para fines comerciales.
Más versiones de Amarrate A Una Escoba Y Vuela Lejos, Caifanes
Amarrate A Una Escoba Y Vuela Lejos
acordes
Amarrate A Una Escoba Y Vuela Lejos (ver 2)
acordes
Amarrate A Una Escoba Y Vuela Lejos
tablatura
Amarrate A Una Escoba Y Vuela Lejos (ver 2)
tablatura
Descubre más canciones de Caifanes