Amarrate A Una Escoba Y Vuela Lejos, Caifanes (tablatura)

Autor: Anónimo | 30859 visualizaciones

ESTE ES EL SOLO DE AL FINAL DE LA CANCION:

(SIN DISTORCION)

e-19-19-19-19-19-19-19-19-19-19-19--
B------------------------------------
G-------------------------------------
D---------------------------------------
A-------------------------------------
E-------------------------------------

e-14-14-14-14-15-15-15-15-17-17-17-17-17-17-17-17-
B-------------------------------------------------
G-------------------------------------------------
D-------------------------------------------------
A-------------------------------------------------
E-------------------------------------------------

e-14-14-14-14-15-15-15-15-17-17-17-17-17-17-17-17-
B-------------------------------------------------
G-------------------------------------------------
D-------------------------------------------------
A-------------------------------------------------
E-------------------------------------------------

e-------14-15-17-15-14-15-----------------
B-15-17-----------------------------------
G-----------------------------------------
D-----------------------------------------
A-----------------------------------------
E-----------------------------------------

e---14-17-14---15-14---19-14--15-14--17-14--15-14-
B-15---------15------15-----15-----15-----15------
G-------------------------------------------------
D-------------------------------------------------
A-------------------------------------------------
E-------------------------------------------------

e-------14-15-17-15-14-15-----14---15-14--
B-15-17---------------------17--17--------
G-------------------------16--------------
D-----------------------------------------
A-----------------------------------------
E-----------------------------------------

e---14-17-14---15-14---19-14--15-14--17-14--15-14-
B-15---------15------15-----15-----15-----15------
G-------------------------------------------------
D-------------------------------------------------
A-------------------------------------------------
E-------------------------------------------------

e-------14-15-17-15-14-15-----14---15-14--
B-15-17---------------------17--17--------
G-------------------------16--------------
D-----------------------------------------
A-----------------------------------------
E-----------------------------------------

e---14-17-14---15-14---19-14--15-14--17-14--15-14-
B-15---------15------15-----15-----15-----15------
G-------------------------------------------------
D-------------------------------------------------
A-------------------------------------------------
E-------------------------------------------------

e-19-19-19-19-19-19-19-19-19-19-------------------
B-------------------------------------------------
G-------------------------------------------------
D-------------------------------------------------
A-------------------------------------------------
E-------------------------------------------------


DUDAS O COMENTARIOS A SLASH401@HOTMAIL.COM

Fuente original: LaCuerda
Colaborador original: ISRAEL BITER SNORKEL [SLASH401@HOTMAIL.COM]
Calificar esta versión:
Aviso: Este fichero es trabajo propio de su transcriptor y representa su interpretación personal de la canción. El material contenido en esta página es para exclusivo uso privado, por lo que se prohibe su reproducción o retransmisión, así como su uso para fines comerciales.
Más versiones de Amarrate A Una Escoba Y Vuela Lejos, Caifanes
Amarrate A Una Escoba Y Vuela Lejos
acordes
Amarrate A Una Escoba Y Vuela Lejos (ver 2)
acordes
Amarrate A Una Escoba Y Vuela Lejos
tablatura
Amarrate A Una Escoba Y Vuela Lejos (ver 2)
tablatura
Descubre más canciones de Caifanes