Dejate Caer, Cafe Tacuba (tablatura) (ver 2)

Autor: aliiink | 26432 visualizaciones



Por -Aliiink-

Cancion: Dejate Caer
Artista: Cafe Tacvba
Album: Vale Callampa


Dejate caer
dejate caer
la tierra es al reves
la sangre es amarilla dejate caer

(Esta Tab. Es De Bajo Acompañado Con El
Siguiente Verso Pero si estas solo 
Puede Ser En Guitarra la ¨B Es Bajo¨ y la ¨G Es Guitarra¨)

B G
1 3|-------------------------------------------------------------------|
2 4|-------------------------------------------------------------------|
3 5|-------------------------------------------------5-----5-3-------3-|
4 6|-2-2---2-0-0---0-2-2---3-0-0---0--2-2---3--0-0-----5-5------3-3----|

el viento ya no sopla
la boca bien cerrada
amarrate los pies
piensa en tu madre y dejate caer

1|--------------3------|
2|---4-------4---------|
3|-5-------5-------5---|
4|---------------------|
5|---------------------|
6|---------------------|

(Los Acordes Se Tocan Como En Reggae o Ska)

Bm              A
Mira al cielo ceder
      Bm        A
Y a la tierra despues
    Em     F#m
Vuelve a creer
      Em         C
La sangre es amarilla
     Bm 
Dejate caer

     F#m        Em
Las olas ya no mojan
F#m             Em
La ira de las rocas
F#m            Em
Amarrame otra vez
Dm
Un beso a mi madre
C            
Y dejame caer.

1|-----3-----4-4-3---3------3--|
2|---4-----4-------6---6--4----|
3|-5-----5---------------------|  x4
4|-----------------------------|
5|-----------------------------|
6|-----------------------------|

1|-----3-----3----3----3--|
2|---4-----4-----4---4----|
3|-5-----5-----5---5------|
4|------------------------|
5|------------------------|
6|------------------------|
              
Bm              A
Mira al cielo ceder
      Bm        A
Y a la tierra despues
    Em     F#m
Vuelve a creer
      Em         C
La sangre es amarilla
     Bm 
Dejate caer

Bm             A
Consuelame otra vez
     Bm         A
Porque no pienso volver
       Em      F#m
El suelo tiene sed
     Em         C         Bm
La vida es imprecisa dejate caer.

     F#m       Em
Las olas no demoran
F#m            Em
A mi alma desertora
F#m            Em
Explicalo muy bien
Dm
Se abre la tierra
C 
El cielo esta a mis pies

1|-----3-----4-4-3---3------3--|
2|---4-----4-------6---6--4----| 
3|-5-----5---------------------|  x8
4|-----------------------------|
5|-----------------------------|
6|-----------------------------|

Ha ha ha¡¡ ha ha ha¡¡

(En Esta Parte No Se Toca esto 
Pero Si Estas Solo Siguete Con Esto)

1|-----3-----4-4-3---3------3--|
2|---4-----4-------6---6--4----| 
3|-5-----5---------------------| x12
4|-----------------------------|
5|-----------------------------|
6|-----------------------------|

Sigueindo La Original

1|-----3-----4-4-3---3------3--|
2|---4-----4-------6---6--4----| 
3|-5-----5---------------------|  x7
4|-----------------------------|
5|-----------------------------|
6|-----------------------------|

Fin:


1|-----3--|
2|---4----|
3|-5------|
4|--------|
5|--------|
6|--------|

Dudas Ayudas Aclaraciones rada_aerd@live.com.mx





Calificar esta versión:
Aviso: Este fichero es trabajo propio de su transcriptor y representa su interpretación personal de la canción. El material contenido en esta página es para exclusivo uso privado, por lo que se prohibe su reproducción o retransmisión, así como su uso para fines comerciales.
Más versiones de Dejate Caer, Cafe Tacuba
Dejate Caer
acordes
Dejate Caer
tablatura
Dejate Caer (ver 2)
tablatura
Dejate Caer
bajo
Dejate Caer
teclado
Descubre más canciones de Cafe Tacuba