Dejate Caer, Cafe Tacuba (bajo)

Autor: Anónimo | 26226 visualizaciones



El bajo de esta rola es uno de los mejores elaborados
de la banda del café tacuba.

Esta versión es la que se escucha en el disco.

Al final se encuentra un indicación de cómo se integra
cada parte a fin de tocar la canción completa.

Entonces a practicar hasta que les salga completa.

Introducción

G|-------------------------------------------------------------------|
D|-------------------------------------------------------------------|
A|-------------------------------------------------5-----5-3-------3-|
E|-2-2---2-0-0---0-2-2---3-0-0---0--2-2---3--0-0-----5-5------3-3----|


Parte 1

G|--------------------------------------------|
D|--------------------------------------------|
A|--2-2----0-2-2---------0-2-0----------------|
E|------2--------------2----------------------|

Parte 2

G|---------------------------------------|
D|---------------------------------------|
A|--2-2----0-2---------------------------|
E|------2---------3-2-3------------------|


Parte 3

G|-----------------------------------------------------|
D|-----------------------------------------------------|
A|------------0--------0-2-----------0-3-3---3-3----3--|
E|-0-0----2-3---2-2-4-------0--2--3--------3------3----|

Parte 4

G|--------------------------------------------|
D|--------------------------------------------|
A|-------------------------0------------------|
E|--2----2-----3--0-0-2-3---------------------|


Parte 5

G|--------------------------------------------|
D|--------------------------------------------|
A|5---5-5-----3---3-3-------------------------|
E|--5-------5---3-------3---------------------|



Parte 6

G|--------------------------------------------|
D|---0-1-0-------3---5---6---8----------------|
A|-3-------3----------------------------------|
E|-------------1---3---4---6------------------|



Parte 7

G|----------------10---8---7---6--------------|
D|---0-1-0------------------------------------|
A|-3-------3----8----6---5---4----------------|
E|--------------------------------------------|


Parte 8

G|----5---5-----5-----------------------------|
D|--------------------------------------------|
A|--3---3---3-3---3-3-------------------------|
E|--------------------------------------------|

Parte 9

G|------------------------------------------------------------|
D|------------------------------------------------------------|
A|------------0---------0-2-0------------0--3-3-----3-3---3---|
E|-0-0---2-3-----2-2--4--------3--0-2--3---------3------3-----|


Parte 10

G|-----------------------------------------------------------|
D|-----------------------------------------------------------|
A|-2-2---2-1-1---1--0-0--0--4-4---4-2-2---2-1-1---1-0--------|
E|-----------------------------------------------------4-3-2-|

Parte 11

G|-----------------------------------7---------------------|
D|---0-1--------3---5---6---8-----5--0---6-----------------|
A|-3------3---------------------3-------------8-6-5-4------|
E|------------1---3---4---6----------------8---------------|


Parte 12

G|--------5----5-------5------5-------5----5---------------5---|
D|-------------------------------------------------------------|
A|--3--3-3----3----3--3----3-3-----3-3----3--------1-3--1-3----|
E|-------------------------------------------------------------|



Integración de la canción Déjate caer:

               Introducción,                      1 X 5 , 2 , 3 , 1
Dejate caer....el viento ya no..... y dejate caer

(esto quiere decir que se toca la introducción, luego
la parte uno se toca cinco veces, la parte 2 una ves,
la tres una ves y la uno una ves)



4 x 3 ,5
Las olas ya no....


6, 7 , 6 , 8
(en el solo de piano)


1 , 2 , 9 , 1
mira al cielo....


10 , 3 , 1
consuélame...


(6,7) X 4
(solo de piano)


11 X 2,12 X 2
Haa haa aa a...


11 X 4
(solo final de piano)

Fuente original: LaCuerda
Colaborador original: Ismael Saldaña Ronzón [chidowankenovi@hotmail.com]





Calificar esta versión:
Aviso: Este fichero es trabajo propio de su transcriptor y representa su interpretación personal de la canción. El material contenido en esta página es para exclusivo uso privado, por lo que se prohibe su reproducción o retransmisión, así como su uso para fines comerciales.
Más versiones de Dejate Caer, Cafe Tacuba
Dejate Caer
acordes
Dejate Caer
tablatura
Dejate Caer (ver 2)
tablatura
Dejate Caer
bajo
Dejate Caer
teclado
Descubre más canciones de Cafe Tacuba