Fatal Destino, Bulldog (tablatura)

Autor: Anónimo | 31905 visualizaciones



bueno...esto es muy fasil!!!


E--5-5-5-5-5-5-----------------------------------------
B--5-5-5-5-5-5-----------------------------------------
G--5-5-5-5-5-5------------------------------------------
D---------------------------------0----0-2--------------
A----------------------0--0-3--3------------------------
E------------------0-3---------------------------------

E------------------------------------------------------
B-----------------1-1-0-1-0-----0----------------------------
G-----0--2-2---0-------------2------------------------------
D--2---------2-------------------------------------------
A-----------------------------------0-0-3-----------------
E------------------------------------------------------


E------------------------------------------------------
B-----------------------------------3-3-1-3-1-0-1-------------
G---------------0--2-2-0-2-0-----0----------------2------------
D-----0--0-2--2---------------2-----------------------------
A--3----------------------------------------------------
E------------------------------------------------------

E-------0----3--5-1-3-------0--------------------------------
B--1-3-----5----5-1-3---1-1---1--0-0-1-0----------------------------
G---------------5-2-4---------------------2----------------
D------------------------------------------------------
A------------------------------------------------------
E------------------------------------------------------

E---------------------------------------------------0---
B--1---0-------------1---0-------------1---0----1-1---1-0-0-1-0-
G----2---2-------------2---2-------------2---2------------------2
D-----------0-1-2-3-----------2-3-4-5--------------------------
A------------------------------------------------------
E------------------------------------------------------

Fuente original: LaCuerda
Colaborador original: bruno [[email protected]]





Calificar esta versión:
Aviso: Este fichero es trabajo propio de su transcriptor y representa su interpretación personal de la canción. El material contenido en esta página es para exclusivo uso privado, por lo que se prohibe su reproducción o retransmisión, así como su uso para fines comerciales.
Más versiones de Fatal Destino, Bulldog
Fatal Destino
acordes
Fatal Destino
tablatura
Fatal Destino
bajo
Fatal Destino (ver 2)
bajo
Descubre más canciones de Bulldog