Fatal Destino, Bulldog (bajo)

Autor: Anónimo | 40711 visualizaciones



intro:

G:--------
D:--------
A:-7/10-12
E:--------

G:--------------------------------------------------19-19-17-19-17--17------------------------------
D:-------------------------------17-19-----19-17--17--------------19--19-19-17-17------17-----------
A: 7/10-12--12-15-15-17-19-17-15------17-17-----19--------------------------------19-19--19-17/12-12
E:--------------------------------------------------------------------------------------------------
Continuacion

G:-----------------------------------19-19-17-19-17--17------------------------------
D:---------------17-19------19-17--17--------------19--19-19-17-17-----17------------
A:12/15-19-17-15-------17-17-----19-------------------------------19-19---19-17/12-12-
E:------------------------------------------------------------------------------------
verso:

G:-------------------------------------------------
D:--------------3-3-2-0-----------------------------
A:-----------------------------0-2-3----2-3-2-0/12----
E: 5-5-5-5-3-1-1--------3-3-3-----------------------
cont.
G:-------------------------------------
D:----3-3-2-0-------------------------
A:------------------0-2-3------2-3-2-0-
E:1-1---------3-3-3--------------------

estribo
E:-5-5-5-5-5-5-3-1-1-1-1-0-1-3-3-3-33-3-5-7-8---/7-8-7-5

Bueno. esta es mas o menos cancion, tiene alguos arreglitos pero me resultaban deficiles de explicar 
en el tab. suerte con el tema, cualkier duda, consulten

Fuente original: LaCuerda
Colaborador original: bruno bucci muñoz [bucci14@hotmail.com]





Calificar esta versión:
Aviso: Este fichero es trabajo propio de su transcriptor y representa su interpretación personal de la canción. El material contenido en esta página es para exclusivo uso privado, por lo que se prohibe su reproducción o retransmisión, así como su uso para fines comerciales.
Más versiones de Fatal Destino, Bulldog
Fatal Destino
acordes
Fatal Destino
tablatura
Fatal Destino
bajo
Fatal Destino (ver 2)
bajo
Descubre más canciones de Bulldog