3d, Bulldog (tablatura) (ver 2)

Autor: Anónimo | 31620 visualizaciones



intro:

E ---2---------5----3--------2----2--2------------
B ---2---------7----5--3/5---2----2--2------------
G ---4---4/5---7----5--------4----4--4------------
D ---5---------7----5--------5--------------------
A ---5---------5----3--------5--------------------
E ---3-----------------------3--------------------

LUEGO HACE: (G,D,C) Y MIENTRAS HACEC:

E --10-7-10-7----10-7-10-7----------
B ------------10-----------8--------
G ------------10-----------7--------     DOS VECES
D ----------------------------------
A ----------------------------------
E ----------------------------------

EL PUNTEO A MITAD DEDL TEMA:

E ------------------------------
B -------------------------8----
G ------------------------------
D -5-7-9-7-5--7-9-7-5-7-5-------
A ------------------------------
E ------------------------------

E ------5---7/8-7/8-5---7-10-7----
B---7/8---8------------8-------8-8
G --------------------------------
D --------------------------------
A --------------------------------
E --------------------------------

FINAL: (G,D,C,D,G)

----------------------------------------------------
AAGUANTE BULLDOG.....PIPIO77
SILENE BERTELLI TE AMO MUCHO SIEMPRE...SIEMPRE..

Fuente original: LaCuerda
Colaborador original: diego muller [[email protected]]





Calificar esta versión:
Aviso: Este fichero es trabajo propio de su transcriptor y representa su interpretación personal de la canción. El material contenido en esta página es para exclusivo uso privado, por lo que se prohibe su reproducción o retransmisión, así como su uso para fines comerciales.
Más versiones de 3d, Bulldog
3d
acordes
3d
tablatura
3d (ver 2)
tablatura
Descubre más canciones de Bulldog