3d, Bulldog (tablatura)

Autor: Anónimo | 27391 visualizaciones



1 Punteo:

1-10-7-10-7--5--10-7-10-7-7/8--10-7-10-7--3-+
2-------------------------------------------+
3-------------------------------------------+
4-------------------------------------------+
5-------------------------------------------+
6-------------------------------------------+

SOLO:

1-------------------------------------------+
2-------------------------------------------+
3------------------------------------7--7---+
4-3-5--5/7--7h8-7-5--7-7/8-7--5--7-5--------+
5-------------------------------------------+
6-------------------------------------------+

1---------------------------------10-----------+
2-8--8--10/8-11--11--10--8--10/11----11p10-8-8-+
3----------------------------------------------+
4----------------------------------------------+
5----------------------------------------------+
6----------------------------------------------+

Fuente original: LaCuerda
Colaborador original: Mauro Hernandez [[email protected]]





Calificar esta versión:
Aviso: Este fichero es trabajo propio de su transcriptor y representa su interpretación personal de la canción. El material contenido en esta página es para exclusivo uso privado, por lo que se prohibe su reproducción o retransmisión, así como su uso para fines comerciales.
Más versiones de 3d, Bulldog
3d
acordes
3d
tablatura
3d (ver 2)
tablatura
Descubre más canciones de Bulldog