Chan Chan, Buenavista Social Club (tablatura) (ver 2)

Autor: Anónimo | 17311 visualizaciones

Intro y Versos:

    Dm            F        C7Gm A         Dm etc...
e[--1-----|--------1------|-----------------1---]
B[--3--3--|--1-------1---1|-5-3--2----------3---]
G[--2-----|--2---------2--|-3-3--2--2-0-----2---]
D[--0-0---|--3---3--------|-5-5--2------3-2-0---]
A[--------|----3----------|---------------------]
E[--------|---------------|---------------------]

Coro

 Dm            F            C7Gm A         Dm
e[--1----1-0-|---------------|---------------------]
B[--3---3----|--1-----1------|-----5-3--2----2-----]
G[--2--2-----|--2--------2---|--3--3-3--2----------]
D[--0-0------|--3---3--------|-5---5-5--2--2-------]
A[-----------|---------------|---------------------]
E[-----------|---------------|---------------------]



Solo

-10--10~--8-10--8~---10-8---------------------------------8~-]
-10--10~--------10~-------11---------10~----------10-11-12---]
-----------------------------9-10-12------9-10-12------------]
-------------------------------------------------------------]
-------------------------------------------------------------]
-------------------------------------------------------------]

----------|10-10-10-10-10/12-10-8--8~--10-8--------8------]
-6p5---8-8|10-10-10-10----------10-10~------11-8-11-11-10-]
-----7----|-----------------------------------------------]
----------|-----------------------------------------------]
----------|-----------------------------------------------]
----------|-----------------------------------------------]

e[--------------6-7-8/10-86----------------------------]
B[--------6-8/10-------------10-8-6----8----------------]
G[-7-7-7-9-------------------------9-7---10-9-7---------]
D[---------------------------------------------10-8-7~--]
A[------------------------------------------------------]
E[------------------------------------------------------]

Intro varias veces y ya

Fuente original: LaCuerda
Colaborador original: Jhonny Mancuso [jmjhonny@hotmail.com]
Calificar esta versión:
Aviso: Este fichero es trabajo propio de su transcriptor y representa su interpretación personal de la canción. El material contenido en esta página es para exclusivo uso privado, por lo que se prohibe su reproducción o retransmisión, así como su uso para fines comerciales.
Más versiones de Chan Chan, Buenavista Social Club
Chan Chan
acordes
Chan Chan (ver 2)
acordes
Chan Chan
tablatura
Chan Chan (ver 2)
tablatura
Descubre más canciones de Buenavista Social Club