Chan Chan, Buenavista Social Club (tablatura)

Autor: Anónimo | 41249 visualizaciones

Toda la cancion va con los acordes Dm F Gm A 

Esta es la parte alegre: el solo
e-10-10-8--10-8--------------------------------8--
B-10-10-10------11---------10---------10-11-12----
G------------------9-10-12----9-10-12-------------
D-------------------------------------------------
A-------------------------------------------------
E-------------------------------------------------

e-------------------10-10-10-10-10/12-10-8--8--           
B-6p5---8-8-------2-10-10-10-10----------10-10-
G-----7---------2------------------------------
D-------------2--------------------------------
A-----------0----------------------------------
E----------------------------------------------

e-10-8---------8--------------------6-7-8/10-8/6------------
B------11-8-11---11-10--------6-8/10------------10-8-6----8-
G----------------------7-7-7-9------------------------9-7---
D-----------------------------------------------------------
A-----------------------------------------------------------
E-----------------------------------------------------------

e-----------------------------
B-----------------------------
G-10-9-7---------7-9-10--9-7--
D--------10-8-7-7-----------7-
A-----------------------------
E-----------------------------

Echenle ganas y oigan la cancion y si sale!!!

Fuente original: LaCuerda
Colaborador original: Juan_Pablo Guerra [jp_guerra1708@hotmail.com]
Calificar esta versión:
Aviso: Este fichero es trabajo propio de su transcriptor y representa su interpretación personal de la canción. El material contenido en esta página es para exclusivo uso privado, por lo que se prohibe su reproducción o retransmisión, así como su uso para fines comerciales.
Más versiones de Chan Chan, Buenavista Social Club
Chan Chan
acordes
Chan Chan (ver 2)
acordes
Chan Chan
tablatura
Chan Chan (ver 2)
tablatura
Descubre más canciones de Buenavista Social Club