Amigo Bronco, Bronco (tablatura)

Autor: Anónimo | 16721 visualizaciones



El intro de esta cancion esta chido y por eso lo mando
ademas de enviar saludos a la banda de Atzalan y altotonga, ver.
asi que ahi les va...

con los dedos posicionados en re menor:

e---1--1--1--------------------
B---3--------3--3--------------
G---2--------------2--2--------
D------------------------------
A------------------------------
E------------------------------

e---1--1--1--------------------
B---3--------3--3--------------
G---2--------------2--2--------
D------------------------------
A------------------------------
E------------------------------

e---1--1--1--3--1--------------
B---3--------------5--3--5--2--
G---2--------------------------
D------------------------------
A------------------------------
E------------------------------

(ahora con los dedos posicionados en la menor)

e---0--0--0--------------------
B---1--------1--1--------------
G---2--------------2--2--------
D---2--------------------------
A------------------------------
E------------------------------

e---0--0--0--------------------
B---1--------1--1--------------
G---2--------------2--2--------
D---2--------------------------
A------------------------------
E------------------------------

e---0--0--0--1--0--------------
B---1--------------3--1--3--0--
G---2--------------------------
D---2--------------------------
A------------------------------
E------------------------------

basicamente eso es todo lo que se toca con guitarra de esta canción
cualquier cosa me escriben a mi correo...
ARRIVEDERCHIIIIIIIIII....

Fuente original: LaCuerda
Colaborador original: Gustavo Melgarejo Pineda [Guztabinho@hotmail.com]





Calificar esta versión:
Aviso: Este fichero es trabajo propio de su transcriptor y representa su interpretación personal de la canción. El material contenido en esta página es para exclusivo uso privado, por lo que se prohibe su reproducción o retransmisión, así como su uso para fines comerciales.
Más versiones de Amigo Bronco, Bronco
Amigo Bronco
acordes
Amigo Bronco
tablatura
Amigo Bronco
bajo
Descubre más canciones de Bronco