Amigo Bronco, Bronco (bajo)

Autor: Anónimo | 45159 visualizaciones



Bueno esta cancion se las envio
pues como me la pidieron
espero les sirva

Intro
E|----4--|-3--3-|----3-|----3-|---3-----|-3---|
A|--3----|------|-5----|-5----|-5---5-3-|--3--|
D|-------|---5--|---5--|---5--|---------|-----|
G|-------|------|------|------|---------|-----|

ayy
E|-----------|---33---3-|---3---|-3---|-3----3--|
A|----333--3-|-3----3---|-5---5-|---5-|--5-3----|
D|--3----3---|----------|-------|-----|---------|
G|-----------|----------|-------|-----|---------|

Se murio mi amigo bronco
E|---3--3--|--------|-------|-----3--|
A|--3--3-3-|--3--3--|--5--5-|--5-3---|
D|---------|-3--3-3-|-5--5--|-5------|
G|---------|--------|-------|--------|

Se rompieron
E|---------|---3---33--|--3----3--|-3-----|
A|---3--3--|-3----3--5-|---5----5-|---5-3-|
D|--3--3-3-|--5--------|-5----5---|-------|
G|---------|-----------|----------|-------|

pa volver a ser
E|--3---|----------|--3---3---|--3--33-|--3----3----|
A|---3--|--3----53-|---3----3-|-5--5---|-5--5-3--3--|
D|----3-|---3------|-5--------|--------|------------|
G|------|-5----5---|----------|--------|------------|

se fue
E|--3-------|---------|---------|---------|
A|---3------|---------|--53--53-|--53--53-|
D|----3---3-|--53--53-|-3---3---|-3---3---|
G|------33--|-3---3---|---------|---------|

E|----3-33--|--3----3--|-3----|-3---|
A|--33----5-|---5----5-|--5-3-|--3--|
D|----------|-5----5---|------|-----|
G|----------|----------|------|-----|

se fue
E|--3-------|---------|---------|---------|
A|---3------|---------|--53--53-|--53--53-|
D|----3---3-|--53--53-|-3---3---|-3---3---|
G|------33--|-3---3---|---------|---------|

E|----3-33--|--3----3--|-3----|-3---|
A|--33----5-|---5----5-|--5-3-|--3--|
D|----------|-5----5---|------|-----|
G|----------|----------|------|-----|

E|---3----3---33--|--3----3----3--|-3-----|-3---|
A|----3----3----5-|---5----5----5-|---5-3-|--3--|
D|--5----5--------|-5----5----5---|-------|-----|
G|----------------|---------------|-------|-----|

E|-----------|---33----3-----|-3--|-3--|-3----3--|
A|----333--3-|-3----3----3-5-|--5-|--5-|--5-3----|
D|--3----3---|---------------|----|----|---------|
G|-----------|---------------|----|----|---------|

Se murio mi amigo bronco
E|---3--3---|----------|----------|------|
A|--3--3-3--|--3----3--|--5----5--|---3--|
D|--------3-|---3----5-|---5----5-|--5---|
G|----------|-5----5---|-7----7---|-7----|

Se rompieron
E|---------|-----3--3---|--3----3--|-3-----|
A|----333--|-3-3--3--35-|---5----5-|---5-3-|
D|--3----3-|--3---------|-5----5---|-------|
G|---------|------------|----------|-------|

pa volver a ser
E|--3---|----------|--33----3-----|--3---3---|-3-----|-3----|
A|---3--|-33----3--|-3---3----3-5-|---5----5-|---5-3-|---3--|
D|----3-|----3---3-|--------------|-5--------|-------|------|
G|------|----------|--------------|----------|-------|------|

se fue
E|--3-------|---------|---------|---------|
A|---3------|---------|--53--53-|--53--53-|
D|----3---3-|--53--53-|-3---3---|-3---3---|
G|------33--|-3---3---|---------|---------|

E|----3-33--|--3----3--|-3----|-3---|
A|--33----5-|---5----5-|--5-3-|--3--|
D|----------|-5----5---|------|-----|
G|----------|----------|------|-----|

se fue
E|--3-------|---------|---------|---------|
A|---3------|---------|--53--53-|--53--53-|
D|----3---3-|--53--53-|-3---3---|-3---3---|
G|------33--|-3---3---|---------|---------|

E|----3-33--|--3----3--|-3----|-3---|
A|--33----5-|---5----5-|--5-3-|--3--|
D|----------|-5----5---|------|-----|
G|----------|----------|------|-----|

Negro, fuerte y bronco
E|------3--|-3----|-33---|
A|--5----5-|--5-3-|---3--|
D|-----5---|------|------|
G|---------|------|------|

Fin
E|---3---|
A|----3--|x6
D|--5----|
G|-------|

atte. miauricio gatolar





Calificar esta versión:
Aviso: Este fichero es trabajo propio de su transcriptor y representa su interpretación personal de la canción. El material contenido en esta página es para exclusivo uso privado, por lo que se prohibe su reproducción o retransmisión, así como su uso para fines comerciales.
Más versiones de Amigo Bronco, Bronco
Amigo Bronco
acordes
Amigo Bronco
tablatura
Amigo Bronco
bajo
Descubre más canciones de Bronco