More Than A Feeling, Boston (tablatura) (ver 2)

Autor: ettelettel | 21410 visualizaciones

Intro and Verse:
e|------------3-----2-------------------------------------|x7
b|---------3-----------3----------------------------------|
G|------2-----------------2--------0--------0-------------|
D|---0-----------0--------------2--------2----------------|
A|---------------------------3--------0-----------2-------|
E|---------------------------------------------3----------|


e|------------3-----2--------------------0-----------------
b|---------3-----------3-----------3--------3-----3--------
G|------2-----------------2-----0-----0--------0-----------
D|---0-----------0-----------------------------------------
A|---------------------------3-----------------------------
E|---------------------------------------------------------


e|---------------3----------------------------------------|
b|---------3--------3-----3-------------------------------|
G|------0-----0--------0----------------------------------|
D|--------------------------------------------------------|
A|---2----------------------------------------------------|
E|--------------------------------------------------------|


Pre-Chorus Riff
e|--------------------------------------------------------|
b|--------------------------------------------------------|
G|---13-12-1213p12-10--13-12-1012p10----------------------|
D|-----------------------------------12-------------------|
A|--------------------------------------------------------|
E|--------------------------------------------------------|


e|--------------------------------------------------------|x3
b|--------------------------------------------------------|
G|--------------------------------------------------------|
D|---5-5-5xx--10-10xx--9-9-9-9xx--7-7--5------------------|
A|---5-5-5xx--10-10xx--7-7-7-7xx--5-5--3------------------|
E|---3-3-3xx--8--8-xx-------------------------------------|


e|--------------------------------------------------------|
b|--------------------------------------------------------|
G|--------------------------------------------------------|
D|---5-5-5xx--10-10xx--8----------------------------------|
A|---5-5-5xx--10-10xx--6----------------------------------|
E|---3-3-3xx--8--8-xx-------------------------------------|


Solo:
e|--------------------------------------------------------------
b|-------7-7-8-7h8p7---10-8-7h8p7-----7-8-7h8p7---7-------------
G|--6-7-9-----------9-7--7-------9-7-9-7-------9-7-9-7-6-2------
D|--------------------------------------------------------------
A|--------------------------------------------------------------
E|--------------------------------------------------------------


e|---------------10-10-9-7h9p7----------------------------------
b|-7-7-8-7h8p7----------------10-8-7-8-7h8p7-------7-5h7p5------
G|------------9-7-------------------7-------9-7-9-7-------7-6-7-
D|--------------------------------------------------------------
A|--------------------------------------------------------------
E|--------------------------------------------------------------


e|---10-9-7-19--------------------------------------------------|
b|--------------------------------------------------------------|
G|--------------------------------------------------------------|
D|--------------------------------------------------------------|
A|--------------------------------------------------------------|
E|--------------------------------------------------------------|
Calificar esta versión:
Aviso: Este fichero es trabajo propio de su transcriptor y representa su interpretación personal de la canción. El material contenido en esta página es para exclusivo uso privado, por lo que se prohibe su reproducción o retransmisión, así como su uso para fines comerciales.
Más versiones de More Than A Feeling, Boston
More Than A Feeling
tablatura
More Than A Feeling (ver 2)
tablatura
Descubre más canciones de Boston