More Than A Feeling, Boston (tablatura)

Autor: Maiden_Dx94 | 37058 visualizaciones

Esta es una cancion de las que mas me gustan es genial y aki se las dejo con todo y su solo disfrutenla  (publicada por adrian-maiden_dx94).

INTRO AND VERSES

   Dsus4          D          C                      G
------------3-----2-----------------------------------------
------3--------3-----3----------3---------3-----------3-----
---------2--------------0---------0---------0---------------
---0--------------------------------------------------------
-----------------------------3----------2-------------------
----------------------------------------------------3-------
   I looked out this morning and the sun was gone,
   Turned on some music to start my day,
   Then lost myself in a familiar song.
   I closed my eyes and I

------0--------0--------------------------3-----------------
---------3--------3-----3----------3---------3-----0--------
------------0--------0----------0-----0---------0-----------
------------------------------------------------------------
---3-------------------------2------------------------------
------------------------------------------------------------
   slipped away...


This part doesnt sound very right but if you dont play it with the song no one could 
tell. I guess thats what the guy that submitted these planed on doing.


PRE-CHORUS RIFF:
e|--------------------------------------------------------|
b|---13-12-12h13p12-10---13-12-10h12p10-------------------|
G|---------------------------------------12---------------|
D|--------------------------------------------------------|
A|--------------------------------------------------------|
E|--------------------------------------------------------|

This is my thoughts on how this part goes. It might be totally wrong but its better 
than what out there now. So if you dont think so please correct me.

e|--------------------------------------
b|--------------------------------------
G|------------5-5-x--------7-7-7-------- repeat several
D|--5-5-5-5xx-5-5-x-2-x-22-7-7-7--------  times
A|--5-5-5-5xx-3-3-x-2-x-22-5-5-5--------
E|--3-3-3-3xx-------0-x-00--------------

last time goes
e|--------------------------------------
b|--------------------------------------
G|------------5-5-x--------------------- 
D|--5-5-5-5xx-5-5-x-2-------------------
A|--5-5-5-5xx-3-3-x-2-------------------
E|--3-3-3-3xx-------0-------------------



Solo:
Tuning:E A D G B e

e|---------------------------------------------------------------------------|
B|------------7---7-8--7h8p7-------8b10b8------------------------------------|
G|---6--7--9------------------9-7--------------------------------------------|
D|---------------------------------------------------------------------------|
A|---------------------------------------------------------------------------|
E|---------------------------------------------------------------------------|

e|---------------------------------------------------------------------------|
B|------8--7--5h7p5-----5h7--------------------------------------------------|
G|---7---------------7-------------------------------------------------------|
D|---------------------------------------------------------------------------|
A|---------------------------------------------------------------------------|
E|---------------------------------------------------------------------------|

e|---------------------------------------------------------------------------|
B|------8--7h8p7-------------------------------------------------------------|
G|---7------------9--7--9b10b9--7--6-----------------------------------------|
D|---------------------------------------------------------------------------|
A|---------------------------------------------------------------------------|
E|---------------------------------------------------------------------------|

e|---------------------------------------------------------------------------|
B|------8--7--7-8--7h8p7--------10b12----------------------------------------|
G|------------------------9--7-----------------------------------------------|
D|---7-----------------------------------------------------------------------|
A|---------------------------------------------------------------------------|
E|---------------------------------------------------------------------------|

e|---------------------------------------------------------------------------|
B|---10--8--7h8p7-----7------------------------------------------------------|
G|-----------------9---------------------------------------------------------|
D|---------------------------------------------------------------------------|
A|---------------------------------------------------------------------------|
E|---------------------------------------------------------------------------|

e|---------------------------------------------------------------------------|
B|------8--7--5h7p5-----5----------------------------------------------------|
G|---7---------------7-------------------------------------------------------|
D|---------------------------------------------------------------------------|
A|---------------------------------------------------------------------------|
E|---------------------------------------------------------------------------|

e|---------------------------------------------------------------------------|
B|---------------------------------------------------------------------------|
G|---7/11--9h11p9------------------------------------------------------------|
D|-----------------12--11--12------------------------------------------------|
A|---------------------------------------------------------------------------|
E|---------------------------------------------------------------------------|

e|---------------------------------------------------------------------------|
B|---14h15p14------17b19-----------------------------------------------------|
G|-------------16------------------------------------------------------------|
D|---------------------------------------------------------------------------|
A|---------------------------------------------------------------------------|
E|---------------------------------------------------------------------------|

| b  bend
| /  slide up
|   slide down
| h  hammer-on
| p  pull-off
| ~  vibrato
| +  harmonic
| x  Mute note

Calificar esta versión:
Aviso: Este fichero es trabajo propio de su transcriptor y representa su interpretación personal de la canción. El material contenido en esta página es para exclusivo uso privado, por lo que se prohibe su reproducción o retransmisión, así como su uso para fines comerciales.
Más versiones de More Than A Feeling, Boston
More Than A Feeling
tablatura
More Than A Feeling (ver 2)
tablatura
Descubre más canciones de Boston