No Callar, Boikot (tablatura)

Autor: Anónimo | 44036 visualizaciones



@Tab by Page Piru

GRUPO:BOIKOT
ALBUM:NO CALLAR
CANCION:NO CALLAR

Intro

D D       E6 E6       C C   G  G     D D   


Estrofa

D D                            E6 E6       

Victimas de una represion por fascistas en pandillas ke cobardes son

C C   G  G     D D   

No nos vamos a callar   (se repiten estos akordes durante toda la kanzion solo ke kon palm mute)

Estribillo

A                                  C                D
Y aki estare junto a esa pared que debemos derribar

(con palm mute)
G                  D           A                           C           D
Gritaremos libertad   ¿tu que? alejas la opresion  No nos vamos a callar


Solillo

E|------------------------------------------------------------------|
B|---------------------------------------10--10--10-----------------|
G|-s2---s4--s5--s7---s2---s4--s5---s7----10--10--10--xvarias veces--|
D|------------------------------------------------------------------|
A|------------------------------------------------------------------|
E|------------------------------------------------------------------|

E|-10--12--13---------------------------------------------------------------------------10-|
B|------------10-12-13---------------------------------9-----------9-----------9-----------|
G|---------------------10--12--13-----------13-12--------12p10p12----12p10p12----12p10-----|
D|--------------------------------10--12-13--------12--------------------------------------|
A|-----------------------------------------------------------------------------------------|
E|-----------------------------------------------------------------------------------------|


E|----------------------13--10------------13--10--10--10--10--10-10-10|
B|-12s13--10---------------------------10-----------------------------|
G|------------10--10s12---------10--13--------------------------------|
D|--------------------------------------------------------------------|
A|--------------------------------------------------------------------|
E|--------------------------------------------------------------------|





Calificar esta versión:
Aviso: Este fichero es trabajo propio de su transcriptor y representa su interpretación personal de la canción. El material contenido en esta página es para exclusivo uso privado, por lo que se prohibe su reproducción o retransmisión, así como su uso para fines comerciales.
Más versiones de No Callar, Boikot
No Callar
tablatura
No Callar
bajo
Descubre más canciones de Boikot