No Callar, Boikot (bajo)

Autor: Anónimo | 46105 visualizaciones



Este tab es bastante fácil, ya que es prácticamente igual al de guitarra.

INTRO:
Aqui el bajo toca continuadamente, mientras la guitarra sólo da una vez cada acorde.
	D	    E        C     G           D
G-----------------------------------------------------
D-----------------------------------------------------
A-----55555555---77777777--33333-----------5555555555-
E---------------------------------33333---------------

ESTROFA:
Es igual que la intro, pero os la pongo con la letra
	D			E
G-----------------------------------------------------------
D-----------------------------------------------------------
A------555555555555555555555-7777777777777777777777777777777
E-----------------------------------------------------------

Víctimas de una agresión por fascistas en pandilla que cobardes son, 
   C	G	D
G------------------------------
D------------------------------
A--3333--------5555555---------
E------33333-------------------

   no nos vamos a callar!

Y luego sigue igual:

Cuantas personas en la cárcel detenidas están y 
la justicia sigue ciega no les quiere mirar,
No nos vamos a olvidar!!!!
QUien hizo la ley nunca la entendió
quien ejecuta la pena no tiene perdón
no nos vamos a callar!!!!

ESTRIBILLO:
	A                           C      D
G------------------------------------------------------
D------------------------------------------------------
A----------------------------------3333---5555--xxx-----
E---55555555555555555555555555-------------------------

de pie estaré, frente a esa pared ke debemos derribar

	G	    D	         A                    C       D
G-------------------------------------------------------------------
D-------------------------------------------------------------------
A----------------55555555---------------------------333333--55555---
E----3333333------------------55555555------------------------------

Gritaremos libertad, tras las rejas la opresión no nos vamos a callar

El estribillo se repite otra vez, solo que al final hace:
	  C     D   A B C D E
G------------------------------------------
D---------------------------2--------------
A--------33333--5---0-2-3-5----------------
E------------------------------------------
No nos vamos a callar

Y empieza otra vez la estrofa, una vez sin letra y luego:

Cuantas veces la justicia se ha de equivocar, 
las agresiones en la calle tienen que soportar
no nos vamos a callar!!!!
Esperando estarán su liberación
que se rompan las cadenas, la tortura y la opresión
ese día llegará!!!!

y empieza el estribillo otra vez

Después de repetir el estribillo dos veces, empieza el solo que es lo chungo.
Yo lo he sacao más o menos, por lo menos suena algo, ahí va:
     D A   C   G
G----------------------------------------
D---------------------------------------
A----5-----3-----------------------------  X 4
E------5------3333-----------------------
      D   A   C    G
G---------------------------------
D---------------------------------
A-----55------33------------------    X 4
E---------55-----333333-----------

Y el final del solo hace:
    A    B C   D
G------------------
D------------------
A--------2-3~--5---
E--5~--------------

Y ahora empieza el estribillo otra vez con el: 'la, laralalala lalala'
Y se repiete el estribillo con letra normal una vez, con el solo otra (el
bajo hace igual en ese solo que en el estribillo) y otra vez más el estribillo.

Pa no liaros: después del solo se repite el estribillo cuatro veces y ya está.



Para cualkier duda o corrección o para pedirme más tabs mi email es:

[email protected]

¡Saluz!





Calificar esta versión:
Aviso: Este fichero es trabajo propio de su transcriptor y representa su interpretación personal de la canción. El material contenido en esta página es para exclusivo uso privado, por lo que se prohibe su reproducción o retransmisión, así como su uso para fines comerciales.
Más versiones de No Callar, Boikot
No Callar
tablatura
No Callar
bajo
Descubre más canciones de Boikot