Korsakov, Boikot (tablatura)

Autor: Anónimo | 34715 visualizaciones



@Tab by Warrior and Piru
http://rockk.net

                              

                              BOIKOT: Korsakov
                                       ------------------
Komo no sakar esta si es una de las mejores.Ahi va y akordaos de ver los akordes k se usan para el ritmo ska:

Intro 
-----
C C C C C C A# B C

C A# G# G G# G A# C

Estrofa
-------
C        G
Ya cayo el telon de acero
G#      G      A#       C
y derribamos el muro de berlin
C             G
Y ahora todos juntos komo hermanos
G#           G      A#       C
vamos de la mano a komer a un Burger KIng

C    A#     G#          G        
Y si Lenin levantara la cabeza
G#       G
k habeis hecho?
A#               C
dale burguer kon keso

Lo demas es igual solo k kon distorsion

Solo:
-----
    C    G    G#   F G   C    G    G#   F G
E|------------------------------------------|
B|------------------------------------------|
G|------------------------------------------|
D|------------------------------------------|
A|--6----5----3----3-2---6--8--10-13-15-----|
E|------------------------------------------|  

E|-------11---11-11------------------11-13----13-13-11-----------------------------------------------|
B|-13-15----13------15-13-15-12---15-------15----------15-13---------------13-11-13------------------|
G|--------------------------------------------------------------8-10-10s12---------13-13-12-10-12----|
D|-----------------------------------------------------------10-----------------------------------10-|
A|---------------------------------------------------------------------------------------------------|
E|---------------------------------------------------------------------------------------------------|  

E|-------------------------------------------------------------------------------------------------------------|
B|---------------------------------------------13-11------13-11------13-11-------------------------------------|
G|-13-12-11-12-7-8-10-10-8-7--------8-10-10s12------11b12------11b12------11b12-13-12-11-12-7-8-10-10-8-7------|
D|---------------------------10--10-----------------------------------------------------------------------10---|
A|-------------------------------------------------------------------------------------------------------------|
E|-------------------------------------------------------------------------------------------------------------|  

Akorde C para ska:
-----------------
E|-8-|
B|-8-|
G|-8-|
D|---|
A|---|
E|---|  

Los demas akordes del intro se hacen kon la misma posicion de dedos pero subiendo primero 2 trastes y luego bajas uno 
y akabas en el traste 8

                  Si no te aklaras kon algo,tienes dudas,sugerencias,krees ke esta mal 
                        o simplemente te apeteze enviar un e-mail aki estoy
                                    
                                    <[email protected]>
                  
                  o visita la sekzion RockK ZOne de mi peich
                                       
                                    <http://rockK.net>
                  ¡Hasta otra!
                                                            Warrior_





Calificar esta versión:
Aviso: Este fichero es trabajo propio de su transcriptor y representa su interpretación personal de la canción. El material contenido en esta página es para exclusivo uso privado, por lo que se prohibe su reproducción o retransmisión, así como su uso para fines comerciales.
Más versiones de Korsakov, Boikot
Korsakov
tablatura
Korsakov
bajo
Descubre más canciones de Boikot