Korsakov, Boikot (bajo)

Autor: Anónimo | 44477 visualizaciones



Este tab es bastante fácil, sólo hay que pillarle el trukillo. Aunke parezca
muy largo, son cuatro cosas ke se repiten a lo largo de toda la canción.  

INTRO:

Los dos primeros tiempos sólo suena la guitarra, luego entra el bajo:

G---------------------------------|
D---------------------------------|
A--1-2-3--------3-----------------|      X 2
E-----------3---------------------|


Luego todo el ritmo ska son la tónica y la kinta de los acordes:


       C     A#    G#      G       G#      G        A#      A
G-----------------------------------------------------------------
D---------5-----3---------------------------------------3-------5-
A--1-2-3-----1--------6--------5-------6-------5----1-------3-----
E------------------4-------3-------4-------3----------------------


    C     A#    G#      G       G#      G        A#      A

G--------------------------------------------------------------
D------5-----3---------------------------------------3-------5-
A---3-----1--------6--------5-------6-------5----1-------3-----
E---------------4-------3-------4-------3----------------------


ESTROFA SKA:

    C            G            G#      G       A#      C
G-------------------------------------------------------------
D-------5-----5-----------------------------------3-------5---
A---3------3--------5------5------6-------5---1-------3-------    X 2
E----------------3-----3------4-------3-----------------------

Ya cayó el telón de acero y derribamos el muro de Berlín  ¡eh!
y ahora todos juntos como hermanos vamos de la mano a comer a un Kutre king


    C     A#    G#      G       G#      G        A#      A

G--------------------------------------------------------------
D------5-----3---------------------------------------3-------5-        
A---3-----1--------6--------5-------6-------5----1-------3-----    X 2 
E---------------4-------3-------4-------3----------------------    

Y si Lenin levantara la cabeza: ¿Ké habéis hecho? Dale un burguer con keso
El imperialismo americano ha entrado en Rusia, en Polonia y en Berlín.

Como veis se repite una parte de la intro.

ESTROFA II:

Ahora akí en No Callar empieza directamente con la estrofa, pero en el directo 
primero Kosta canta una vez a capella y luego ya empieza. 

ahora en realidad son las mismas notas ke lo anterior, pero sin arpegiar. 
Hay ke tocarlos mazo de rápido para ke keden bien:

      C         G       G#     G     A#     C
G------------------------------------------------------------
D------------------------------------------------------------
A---33333333------------------------1111---3333--------------   X 2
E------------33333333--4444---3333---------------------------

Más de un siglo de lucha komunista y de resistencia ke no acaba akí
Si en Moscú reina el capitalista el pueblo cubano debe resistir


ESTRIBILLO:

       C     A#    G#    G     G#      G        A#      A

G------------------------------------------------------------
D------------------------------------------------------------
A---33333---11111------------------------------1111----3333--   X 2
E-----------------4444--3333---4444---33333------------------

Y ahora ke tenemos democracia reina la mafia, el dólar esta akí
Y ahora ke tenemos democracia: hambre y miseria, de ke nos sirve así


PUENTE 1:

Es igual que el estribillo, os lo pongo de todas maneras:

       C     A#    G#    G     G#      G        A#      A

G------------------------------------------------------------
D------------------------------------------------------------
A---33333---11111------------------------------1111----3333--   X 2
E-----------------4444--3333---4444---33333------------------


    C        A# B    C
G-----------------------------------------------------------
D-----------------------------------------------------------
A---3--------1--2----3---------x-x-x-x----------------------
E-----------------------------------------------------------


Ahora empieza otra vez la estrofa ska:

    C            G            G#      G       A#      C
G-------------------------------------------------------------
D-------5-----5-----------------------------------3-------5---
A---3------3--------5------5------6-------5---1-------3-------    X 2
E----------------3-----3------4-------3-----------------------

No llevaré niguna bandera, ni patria, ni frontera, ni leyes pa' vivir
esta es la tierra ke trabajó mi pueblo, akí es donde he vivido y akí kiero morir

y otra vez el estribillo:

       C     A#    G#    G     G#      G        A#      A

G------------------------------------------------------------
D------------------------------------------------------------
A---33333---11111------------------------------1111----3333--   X 2
E-----------------4444--3333---4444---33333------------------

Y ahora ke tenemos democracia reina la mafia, el dólar esta akí
Y ahora ke tenemos democracia: hambre y miseria, de ke nos sirve así

Akí en No callar Juankar sólo hace:

    G
G-------
D-------  
A---3---
E-------
y mantiene esa nota hasta ke llega el puente 2, pero en el Directo hace:

      G
G---------------3-5--------------------
D-----------5-6------------------------
A-----3--------------------------------
E--------------------------------------

Eso es depende de la versión ke tengáis, lo tocáis de una manera u otra.

PUENTE 2:

No estoy muy segura de haber sacado esta parte bien, pero algo suena. 

       C         G        G#      F
G-------------------------------------------------
D-------------------------------------------------
A--1-2-3-333--------------------------------------  X 2
E---------------3-333---4-444---1-111-------------

Ahora viene el solo de Kosta, se repite una vez más lo de arriba:

       C         G        G#      F
G-------------------------------------------------
D-------------------------------------------------
A--1-2-3-333--------------------------------------  
E---------------3-333---4-444---1-111-------------

Y luego hace esto (esta es la parte ke no sé si está bien):

      C    A#   G#  G G#     A#    C

G------------------------------------------------
D------------------------------------------------
A-----3----1-----------------111--33333----------
E --------------4---3-4444-----------------------

Y termina el solo de Kosta y la canción repitiendo el estribillo:

       C     A#    G#    G     G#      G        A#      A

G------------------------------------------------------------
D------------------------------------------------------------
A---33333---11111------------------------------1111----3333--   X 3
E-----------------4444--3333---4444---33333------------------

La segunda vez que lo repite empieza el : la, la, la laralalalalalala


Parece difícil pero no lo es en absoluto.


Para cualkier duda o corrección o para pedirme más tabs mi email es:

[email protected]

¡Saluz!





Calificar esta versión:
Aviso: Este fichero es trabajo propio de su transcriptor y representa su interpretación personal de la canción. El material contenido en esta página es para exclusivo uso privado, por lo que se prohibe su reproducción o retransmisión, así como su uso para fines comerciales.
Más versiones de Korsakov, Boikot
Korsakov
tablatura
Korsakov
bajo
Descubre más canciones de Boikot