Heaven And Hell, Black Sabbath (tablatura) (ver 2)

Autor: Daiana94 | 35833 visualizaciones



Para que suene bien sobre el tema en la afinación mi hay que hacer los acordes 
|--------------------------------|--------------------------------| 
|--------------------------------|--------------------------------| 
|--3-5-6-------------------------|-3-5-6-8--6-5-3-----------------| 
|--1-3-4--4---6-6-6--------------|-1-3-4-6--4-3-1-----------------| 
|---------2---4-4-4--------------|--------------------------------| 
|--------------------------------|--------------------------------| 

la segunda parte 

|--------------------------------| 
|--------------------------------| 
|--------------------------------| 
|1---1-1-1--1-1-1--1-1-1--1-1-1--| 
|--------------------------------| 
|--------------------------------| 

|--------6-----------------------| 
|--------6-----------------------| 
|--------6------1----------------| 
|-3-4-1-----3-4---3-4-1----------| 
|--------------------------------| 
|--------------------------------|





Calificar esta versión:
Aviso: Este fichero es trabajo propio de su transcriptor y representa su interpretación personal de la canción. El material contenido en esta página es para exclusivo uso privado, por lo que se prohibe su reproducción o retransmisión, así como su uso para fines comerciales.
Más versiones de Heaven And Hell, Black Sabbath
Heaven And Hell
tablatura
Heaven And Hell (ver 2)
tablatura
Descubre más canciones de Black Sabbath