Heaven And Hell, Black Sabbath (tablatura)

Autor: pelu28_93 | 32351 visualizaciones



Figure 1

|--------------------------------|--------------------------------|
|--------------------------------|--------------------------------|
|--------------------------------|--------------------------------|
|9---------------11------12------|5---------------7-7----7--------|
|7---------------9-------10------|3---------------5-5----5--------|
|--------------------------------|--------------------------------|


|--------------------------------|--------------------------------|
|--------------------------------|--------------------------------|
|--------------------------------|--------------------------------|
|9---------------11------12------|14--1211-9----------------------|
|7---------------9-------10------|12--10-9-7----------------------|
|--------------------------------|--------------------------------|


|--------------------------------|--------------------------------|
|--------------------------------|--------------------------------|
|--------------------------------|--------------------------------|
|9---------------11------12------|5---------------7-7----7-7------|
|7---------------9-------10------|3---------------5-5----5-5------|
|--------------------------------|--------------------------------|

                                                          H   H
|--------------------------------|--------------------------------|
|--------------------------------|--------------------------------|
|--------------------------------|---------------------------___--|
|9---------------11------12------|14--1211-9-------------___-0-2--|
|7---------------9-------10------|12--10-9-7-------------0-2------|
|--------------------------------|--------------------------------|


Figure 2
|--------------------------------|--------------------------------|
|--------------------------------|--------------------------------|
|--------------------------------|--------------------------------|
|--------------------------------|--------------------------------|
|--------------------------------|--------------------------------|
|0---0-0-0---0-0-0---0-0-0---0-0-|0---0-0-0---0-0-0---0-0-0---0-0-|


|--------------------------------|--------------------------------|
|--------------------------------|--------------------------------|
|--------------------------------|--------------------------------|
|--------------------------------|--------------------------------|
|--------------------------------|--------------------------------|
|0---0-0-0---0-0-0---0-0-0---0-0-|0---0-0-0---0-0-0---0-0-0---0-0-|


|--------------------------------|--------------------------------|
|------------------------12-\----|--------------------------------|
|------------------------12-\----|--------------------------------|
|------------------------12-\----|---------7----------------------|
|----9-10-7----------------------|----9-10--------10-9-7----------|
|--------------------------------|--------------------------------|


                            S
|--------------------------------|--------------------------------|
|------------------------12-\----|--------------------------------|
|------------------------12-\----|--------------------------------|
|------------------------12-\----|---------7----------------------|
|----9-10-7----------------------|----9-10--------10-9-7----------|
|--------------------------------|--------------------------------|



|--------------------------------|--------------------------------|
|--------------------------------|--------------------------------|
|--------------------------------|--------------------------------|
|9-------------------------------|--------------------------------|
|7-------------------------------|--------------------------------|
|--------------------------------|--------------------------------|


|--------------------------------|--------------------------------|
|------------------------12-\----|--------------------------------|
|------------------------12-\----|--------------------------------|
|------------------------12-\----|---------7----------------------|
|----9-10-7----------------------|----9-10--------10-9-7----------|
|--------------------------------|--------------------------------|


                            S
|--------------------------------|--------------------------------|
|------------------------12-\----|--------------------------------|
|------------------------12-\----|--------------------------------|
|------------------------12-\----|---------7----------------------|
|----9-10-7----------------------|----9-10--------10-9-7----------|
|--------------------------------|--------------------------------|



|--------------------------------|--------------------------------|
|--------------------------------|--------------------------------|
|--------------------------------|--------------------------------|
|9-------------------------------|--------------------------------|
|7-------------------------------|--------------------------------|
|--------------------------------|--------------------------------|

|--------------------------------|--------------------------------|
|------------------------12-\----|--------------------------------|
|------------------------12-\----|--------------------------------|
|------------------------12-\----|---------7----------------------|
|----9-10-7----------------------|----9-10--------10-9-7----------|
|--------------------------------|--------------------------------|


                            S
|--------------------------------|--------------------------------|
|------------------------12-\----|--------------------------------|
|------------------------12-\----|--------------------------------|
|------------------------12-\----|---------7----------------------|
|----9-10-7----------------------|----9-10--------10-9-7----------|
|--------------------------------|--------------------------------|



|--------------------------------|--------------------------------|
|--------------------------------|--------------------------------|
|--------------------------------|--------------------------------|
|9-------------------------------|--------------------------------|
|7-------------------------------|--------------------------------|
|--------------------------------|--------------------------------|





Calificar esta versión:
Aviso: Este fichero es trabajo propio de su transcriptor y representa su interpretación personal de la canción. El material contenido en esta página es para exclusivo uso privado, por lo que se prohibe su reproducción o retransmisión, así como su uso para fines comerciales.
Más versiones de Heaven And Hell, Black Sabbath
Heaven And Hell
tablatura
Heaven And Hell (ver 2)
tablatura
Descubre más canciones de Black Sabbath