Electric Funeral, Black Sabbath (tablatura) (ver 2)

Autor: angus100 | 24852 visualizaciones



E|------------------------------------|    e|-----------------------------------------|
B|------------------------------------|    B|-----------------------------------------|
G|------------------------------------|    G|-----------------------------------------| (Riff I) (Repete 4x)
D|------------------------------------| Ou D|-------4/5-4-----------------------------|
A|----------2h3--2~~~-----------------|    A|--2-2--2/3-2--2--4/5-4-------------------|
E|----0--0-------------0--2h3--2~~~---|    E|--0-0---------0--2/3-2-------------------|



E|------------------------------------|    e|----------------------------------------|
B|------------------------------------|    B|----------------------------------------|
G|------------------------------------|    G|----------------------------------------| (Riff II) (Repete 8x)
D|------------------------------------| Ou D|-----4-3--------------------------------|
A|------2~~-1~~-0---------------------|    A|--2--2-1--7-5---------------------------|
E|----0-----------3-------------------|    E|--0-------5-3---------------------------|


Riff I (4x)

Riff II (8x)

Riff I (4x)


E|--------------|------------12--12--12--12--12--|-----------12--12--12----|
B|--------------|------------12--12--12--12--12--|-----------12--12--12----|
G|-----(5x)-----|------------12--12--12--12--12--|-----------12--12--12----|
D|--------------|--------------------------------|-------------------------|
A|---14-13-12---|--14-12-14----------------------|-14-12-14----------------|
E|---12-11-10---|--12-10-12----------------------|-12-10-12----------------|



|-------------------|---------------------|
|-------------------|---------------------|
|----12-14-12-14^---|----12-14-14^-12-----|
|-14----------------|-14--------------14--|
|-------------------|---------------------|
|-------------------|---------------------|



|-12--12--12--12---12--12--12--12-|------------------|---------------|
|-15^-15^-15^-15^--15^-15^-15^-15^|-3--3--3---5------|-3--3--3---5---|
|---------------------------------|-5^-5^-5^--7^/12-|-5^-5^-5^--7^--|
|----------------------------(X2)-|---------(X3)-----|---------------|
|--7--6--5---------7--6--5--------|------------------|---------------|
|-----------7-6-5-----------7-6-5-|------------------|---------------|


Riff I (4x)

Riff II(8x)

Riff I (4x)

Riff II (8x)
abrir player
afinador
rolagem
dicionário
favoritar cifra
add a minhas cifras
fotos
vídeos
imprimir
corrigir
salvar txt
Texto Colunas
diminuir
 
aumentar
uma
 
duas
Alterar tom
½ tom ½ tom
afinação acordes na letra esconder tabs
mais »
Cifra  Guitar Pro  Baixo  Baixo V2  Mais...
15.758 exibições
Email





Calificar esta versión:
Aviso: Este fichero es trabajo propio de su transcriptor y representa su interpretación personal de la canción. El material contenido en esta página es para exclusivo uso privado, por lo que se prohibe su reproducción o retransmisión, así como su uso para fines comerciales.
Más versiones de Electric Funeral, Black Sabbath
Electric Funeral
tablatura
Electric Funeral (ver 2)
tablatura
Descubre más canciones de Black Sabbath