Electric Funeral, Black Sabbath (tablatura)

Autor: eson | 27969 visualizaciones



Electric funeral


       e----------------------------------------------------
       b----------------------------------------------------
       g----------------------------------------------------
       D----------------------------------------------------x2
       A------2-3-2-----------------2-3-2-------------------
       E--0-0--------0-2-3-2----0-0--------0-2-3-2----------

       e----------------------------------------------------
       b----------------------------------------------------
       g----------------------------------------------------x4
       D----------------------------------------------------
       A----2-1-1-1-------2-1-1-----------------------------
       E--0---------3---0-----------------------------------


     
LETRA DE LA CANCION BLACK SABBATH - ELECTRIC FUNERAL (PARANOID)

Reflex in the sky warn you you\'re gonna die
Storm comin\' you better hide from the atomic tide
Flashes in the sky turns houses into sty
Turns people into clay, radiation minds decay
Robot minds of robot slaves lead them to atomic (grave/rage/rate)
Plastic flowers, melting sun, fading moon falls upon
dying world of radiation, victims of (man/mad) frustration,
burning globe of obscene fire, like electric funeral pyre
Buildings crashing down to what\'s cracking ground
[Rivers turned to wood]**, ice melting to flood
Earth lies in death bed, clouds cry for the dead
Terrifying rain, ease a burning pain
\'lectric Fun\'ral (x4)
And so in the sky shines the electric eye
Supernat\'ral king, takes earth under his wing
Heaven\'s golden chorus sings, Hell\'s angels flap their wings
Evil souls fall to Hell, ever trapped in burning cell 
  

   
 






despues va el solo que no me lo se pero cuando lo sepa lo pongo y se vuelve a repetir eso toda la cancion





Comentarios del colaborador: letra de www.quedeletras.com

Calificar esta versión:
Aviso: Este fichero es trabajo propio de su transcriptor y representa su interpretación personal de la canción. El material contenido en esta página es para exclusivo uso privado, por lo que se prohibe su reproducción o retransmisión, así como su uso para fines comerciales.
Más versiones de Electric Funeral, Black Sabbath
Electric Funeral
tablatura
Electric Funeral (ver 2)
tablatura
Descubre más canciones de Black Sabbath