Cada Que, Belanova (tablatura)

Autor: jcc666 | 35532 visualizaciones



Hola a todos, aquí esta Cada que de Belanova.

Nota - Los Riffs del tab los puse a lado de los Versos,coros,etc.
       para que sea mas fasil entenderlos.

     - El Riff que este entre [ ] quiere decir que empieza 
       en [ y termina en ] y el Riff se toca 2 o mas veces.

     - Los acordes que están entre [ ] solo se rasguean una vez.

Acordes :

        E A D G B e
Fm    = 1 3 3 1 1 1
G#    = 4 6 6 5 4 4
C#    = x 4 6 6 6 4
Cm    = x 3 5 5 4 3


Intro :

e -8-8-8-8-8-8-8s6-4-4-4-4-4-4-4s9-9-9-9-9-9-9-9-9-9-9-9-9-9-9-9s8sssss-----
B --------------------------------------------------------------------------
G --------------------------------------------------------------------------
D --------------------------------------------------------------------------
A --------------------------------------------------------------------------
E --------------------------------------------------------------------------


Verso 1 :

[Riff 1...                        Riff 1 :
Siento que                     e ------------------------------------
Desde aquel momento que te vi  B ------------------------------------
Descifré                       G ------------------------------------
Que nunca serías para mí       D ------------------------------------
             ...Riff 1]        A ---------3333333344444444------66---
                               E -44444444----------------444444-----


Precoro :

Riff 2...                               Riff 2 :
Fm       G#      C#             G#            x4 x4 x4 x4       x4 x4 x4
Que tal vez conocerte fue mi error   e -------4--4--4--4--------4--4--4--4---
Fm       G#      C#             G#   B -------6--4--6--4--------6--4--6--4---
O quizás el amor se equivocó         G -------5--5--6--5--------5--5--6--5---
                                     D ---6----------------------------------
                                     A -6---6------------6-5--3--------------
                                     E --------------------------------------


Coro :

   G#       Cm        C#
Y cada que pienso en ti
   G#           Cm    C#
Se enciende mi corazón
   G#           Fm        C#
Y nada es más triste que hoy
           G#    Fm    C#
Hablar de ti


Solo :

e -----------------------------------------------------
B -----------------------------------------------------
G -------------20-20-20-20-------------18-18-17-17-----
D -18-18-18-18-------------18-18-18-18-----------------
A -----------------------------------------------------
E -----------------------------------------------------


Verso :

[Riff 1...                            Riff 1 :
Siento que                         e ------------------------------------
Tú me cortas la respiración        B ------------------------------------
Cada vez                           G ------------------------------------
Que te acercas sólo un poco a mí   D ------------------------------------
             ...Riff 1]            A ---------3333333344444444------66---
                                   E -44444444----------------444444-----


Precoro :

Riff 2...                               Riff 2 :
Fm       G#      C#             G#            x4 x4 x4 x4       x4 x4 x4
Que tal vez conocerte fue mi error   e -------4--4--4--4--------4--4--4--4---
Fm       G#      C#             G#   B -------6--4--6--4--------6--4--6--4---
O quizás el amor se equivocó         G -------5--5--6--5--------5--5--6--5---
                   ...Riff 2         D ---6----------------------------------
                                     A -6---6------------6-5--3--------------
                                     E --------------------------------------


Coro :

   G#       Cm        C#
Y cada que pienso en ti
   G#           Cm    C#
Se enciende mi corazón
   G#           Fm        C#
Y nada es más triste que hoy
           G#    Fm    C#
Hablar de ti


Otro :

[A#m]  [C#]        [G#]        [D#]
Pero esta historia tiene que parar
[A#m] [C#]       [G#]  [D#]
No entiendo esto de verdad
[A#m] [C#]      [G#]    [D#]
No tiene caso esta situación
[A#m] [C#]        [G#] [D#]
Porque esto es tan ilógico


Coro final :

   G#       Cm        C#
Y cada que pienso en ti
   G#           Cm    C#
Se enciende mi corazón
   G#           Fm        C#
Y nada es más triste que hoy
           G#    Fm    C#
Hablar de ti,
           G#    Cm    C#
Hablar de ti,
           G#    Cm    C#
Hablar de ti,
           Riff 3           Riff 3 :
Hablar de ti,            e --------------------------------------------
                         B --------------------------------------------
                         G ----------------4---------4-----------------
                         D -----6--------6---6-----6---6----4-4-3-3----
                         A ---6---6----3-------3-4-------4----------4--
                         E -4-------4----------------------------------


                                                       FIN

Cualquier cosa a mi mail jc_xj@hotmail.com





Calificar esta versión:
Aviso: Este fichero es trabajo propio de su transcriptor y representa su interpretación personal de la canción. El material contenido en esta página es para exclusivo uso privado, por lo que se prohibe su reproducción o retransmisión, así como su uso para fines comerciales.
Más versiones de Cada Que, Belanova
Cada Que
acordes
Cada Que
tablatura
Descubre más canciones de Belanova