Cada Que, Belanova (acordes)

Autor: chinopx | 28942 visualizaciones

asosmcsoscmdsosfmgsos


Intro :
WenU eSta es mI prImeRa tAblaTura....
esPerO cOmeNteN...pAra vEr sI esTa bIeN!!!!

.................................................................
E -8-8-8-8-8-8-8s6-4-4-4-4-4-4-4s9----
B ------------------------------------
G ------------------------------------
D ------------------------------------
A ------------------------------------
E ------------------------------------

E -9-9-9-9-9-9-9-9-9-9-9-9-9-9-9s8sssss-----
B ------------------------------------------
G ------------------------------------------
D ------------------------------------------
A ------------------------------------------
E ------------------------------------------

Verso 1 :

[Riff 1...                        Riff 1 :
Siento que                     E ------------------------------------
Desde aquel momento que te vi  B ------------------------------------
Descifré                       G ------------------------------------
Que nunca serías para mí       D ------------------------------------
             ...Riff 1]        A ---------3333333344444444------66---
                               E -44444444----------------444444-----


Precoro :

Riff 2...                     Riff 2 :
Fm       G#                         x4 x4 x4 x4       x4 x4 x4
Que tal vez                E -------4--4--4--4--------4--4--4--4---
     C#             G#     B -------6--4--6--4--------6--4--6--4---
conocerte fue mi error     G -------5--5--6--5--------5--5--6--5---
Fm       G#                D ---6----------------------------------
O quizás el amor           A -6---6------------6-5--3--------------
C#             G#          E --------------------------------------
se equivocó.



Coro :

   G#       Cm        C#
Y cada que pienso en ti
   G#           Cm    C#
Se enciende mi corazón
   G#           Fm        C#
Y nada es más triste que hoy
           G#    Fm    C#
Hablar de ti


Solo :

E -----------------------------------------------------
B -----------------------------------------------------
G -------------20-20-20-20-------------18-18-17-17-----
D -18-18-18-18-------------18-18-18-18-----------------
A -----------------------------------------------------
E -----------------------------------------------------


Verso :

[Riff 1...                            Riff 1 :
Siento que                         E ------------------------------------
Tú me cortas la respiración        B ------------------------------------
Cada vez                           G ------------------------------------
Que te acercas sólo un poco a mí   D ------------------------------------
             ...Riff 1]            A ---------3333333344444444------66---
                                   E -44444444----------------444444-----


Precoro :

Riff 2...                     Riff 2 :
Fm       G#                         x4 x4 x4 x4       x4 x4 x4
Que tal vez                E -------4--4--4--4--------4--4--4--4---
     C#             G#     B -------6--4--6--4--------6--4--6--4---
conocerte fue mi error     G -------5--5--6--5--------5--5--6--5---
Fm       G#                D ---6----------------------------------
O quizás el amor           A -6---6------------6-5--3--------------
C#             G#          E --------------------------------------
se equivocó.


Coro :

   G#       Cm        C#
Y cada que pienso en ti
   G#           Cm    C#
Se enciende mi corazón
   G#           Fm        C#
Y nada es más triste que hoy
           G#    Fm    C#
Hablar de ti


Otro :

[A#m]  [C#]        [G#]        [D#]
Pero esta historia tiene que parar
[A#m] [C#]       [G#]  [D#]
No entiendo esto de verdad
[A#m] [C#]      [G#]    [D#]
No tiene caso esta situación
[A#m] [C#]        [G#] [D#]
Porque esto es tan ilógico


Coro final :

   G#       Cm        C#
Y cada que pienso en ti
   G#           Cm    C#
Se enciende mi corazón
   G#           Fm        C#
Y nada es más triste que hoy
           G#    Fm    C#
Hablar de ti,
           G#    Cm    C#
Hablar de ti,
           G#    Cm    C#
Hablar de ti,
           Riff 3           Riff 3 :
Hablar de ti,            E --------------------------------------------
                         B ----------------4---------4-----------------
                         G --------------------------------------------
                         D -----6--------6---6-----6---6----4-4-3-3----
                         A ---6---6----3-------3-4-------4----------4--
                         E -4-------4----------------------------------


           cOmentEn pOrfA sI esTa bIen...!!!!xD





Calificar esta versión:
Aviso: Este fichero es trabajo propio de su transcriptor y representa su interpretación personal de la canción. El material contenido en esta página es para exclusivo uso privado, por lo que se prohibe su reproducción o retransmisión, así como su uso para fines comerciales.
Más versiones de Cada Que, Belanova
Cada Que
acordes
Cada Que
tablatura
Descubre más canciones de Belanova