Himno A La Alegría, Beethoven (tablatura) (ver 5)

Autor: pabloarroyo18 | 17955 visualizaciones

e||--2-2--3--5-5-3-2-0-----0-2-2-00---------------------||
B||--3-3--5--7-7-5-3-2-3-3-2-3-3-22---------------------||
G||-----------------------------------------------------||
D||--0=================---------------------------------||
A||--------------------2--------------------------------||
E||-----------------------------------------------------||


e||--2-2--3--5-5-3-2-0-----0-2-0------------------------||
B||--3-3--5--7-7-5-3-2-3-3-2-3-2-33---------------------||
G||------------------------------22---------------------||
D||--0=================---------------------------------||
A||--------------------2--------------------------------||
E||-----------------------------------------------------||


e||--0-0-2----0-2-3-2----0-2-3-2-0---0------------------||
B||--2-2-3-3--2-3-5-3-3--2-3-5-3-2-3-2------------------||
G||--------2----------2------------2---2====------------||
D||------------------------------------0====------------||
A||-----------------------------------------------------||
E||-----------------------------------------------------||


LUEGO VUELVE A COMENZAR TODO DE NUEVO...

Comentarios del colaborador: espero que les guste y puntúen correctamente...chau

Calificar esta versión:
Aviso: Este fichero es trabajo propio de su transcriptor y representa su interpretación personal de la canción. El material contenido en esta página es para exclusivo uso privado, por lo que se prohibe su reproducción o retransmisión, así como su uso para fines comerciales.
Más versiones de Himno A La Alegría, Beethoven
Himno A La Alegria
acordes
Himno A La Alegria (ver 2)
acordes
Himno A La Alegria
tablatura
Himno A La Alegria (ver 2)
tablatura
Himno A La Alegria (ver 3)
tablatura
Himno A La Alegria (ver 4)
tablatura
Himno A La Alegría (ver 5)
tablatura
Himno A La Alegria (ver 6)
tablatura
Himno A La Alegria (ver 7)
tablatura
Himno A La Alegria
teclado
Himno A La Alegria (ver 2)
teclado
Descubre más canciones de Beethoven