Himno A La Alegria, Beethoven (tablatura) (ver 4)

Autor: TaTaSoSoToTe | 40529 visualizaciones

 |-------------------------------------------------|
 |-------------------------------------------------|
 |-------------------------------------------------|
 |-------------------------------------------------|
 |-----------------3-1-1-3-----3-------------------|
 |--0-0--1-3-3-1-0---------0-0---------------------|

 |-------------------------------------------------|
 |-------------------------------------------------|
 |-------------------------------------------------|
 |-------------------------------------------------|
 |-----------------3-1-1-3-----3-1-----------------|
 |--0-0--1-3-3-1-0---------0-----------------------|

 |-------------------------------------------------|
 |-------------------------------------------------|
 |-------------------------------------------------|
 |-------------------------------------------------|
 |--3---1---3---------1--3--------3-1-3-3----------|
 |----0--------0-1-0--------0-1-0------------------|

 |-------------------------------------------------|
 |-------------------------------------------------|
 |-------------------------------------------------|
 |-------------------------------------------------|
 |-----------------3-1-1-3-----3-1-----------------|
 |--0-0--1-3-3-1-0---------0-----------------------|
Calificar esta versión:
Aviso: Este fichero es trabajo propio de su transcriptor y representa su interpretación personal de la canción. El material contenido en esta página es para exclusivo uso privado, por lo que se prohibe su reproducción o retransmisión, así como su uso para fines comerciales.
Más versiones de Himno A La Alegria, Beethoven
Himno A La Alegria
acordes
Himno A La Alegria (ver 2)
acordes
Himno A La Alegria
tablatura
Himno A La Alegria (ver 2)
tablatura
Himno A La Alegria (ver 3)
tablatura
Himno A La Alegria (ver 4)
tablatura
Himno A La Alegría (ver 5)
tablatura
Himno A La Alegria (ver 6)
tablatura
Himno A La Alegria (ver 7)
tablatura
Himno A La Alegria
teclado
Himno A La Alegria (ver 2)
teclado
Descubre más canciones de Beethoven