Girlfriend, Avril Lavigne (tablatura) (ver 2)

Autor: jacovi | 41529 visualizaciones

e-5-5-5-5-|-5-5-5-5-7-5|-5-5-5-5-7-7-7-7-8-7-|
b---------|------------|---------------------|
g---------|------------|---------------------|
d---------|------------|---------------------|
a---------|------------|---------------------|
e---------|------------|---------------------|

e-5-5-5-5-|-5-5-5-5-7-5|---------------------------|
b---------|------------|---------------------------|
g---------|------------|---------------------------|
d---------|------------|---------------------------|
a---------|------------|-0---0--4-4-4-5-5-5-5-5-5-5|
e---------|------------|-0---0--4-4-4-5-5-5-5-5-5-5|
Calificar esta versión:
Aviso: Este fichero es trabajo propio de su transcriptor y representa su interpretación personal de la canción. El material contenido en esta página es para exclusivo uso privado, por lo que se prohibe su reproducción o retransmisión, así como su uso para fines comerciales.
Más versiones de Girlfriend, Avril Lavigne
Girlfriend
acordes
Girlfriend
tablatura
Girlfriend (ver 2)
tablatura
Girlfriend
bajo
Descubre más canciones de Avril Lavigne