Girlfriend, Avril Lavigne (bajo)

Autor: saimerej_lavigne | 15217 visualizaciones

Intro (x2)
G----------------------------------------------|
D----------------------------------------------|
A-5-------------------------5555---------------|
E--------------------------------222233333333--|

Verse (x2)
G------------------------------------------------|
D------------------------------------------------|
A-5-55-55-55-00-00-00-00-22-22-22-22-------------|
E-----------------------------------33-33-33-33--|

Pre-Chorus (x1)
G-------------------------------------|
D-------------------------------------|
A-------------------------------------|
E-7-7-7-7--2-2-2-2--5-5-5-5--3-3-3-3--|




Chorus (x2) G-------------------------------------------| D-------------------------------------------| A-55------55------55------5555--------------| E---557733--557733--557733----222233333333--| Bridge (x3) (at the end of 3rd time only) G----------------------|-------------------| D----------------------|-------------------| A--5-------------------|-5555--------------| E----------------------|-----222233333333--| Intro x2 verse x2 pre-chorus x1 chorus x2 verse x2 pre-chorus x1 chorus x2 Bridge x3 chorus x3
Calificar esta versión:
Aviso: Este fichero es trabajo propio de su transcriptor y representa su interpretación personal de la canción. El material contenido en esta página es para exclusivo uso privado, por lo que se prohibe su reproducción o retransmisión, así como su uso para fines comerciales.
Más versiones de Girlfriend, Avril Lavigne
Girlfriend
acordes
Girlfriend
tablatura
Girlfriend (ver 2)
tablatura
Girlfriend
bajo
Descubre más canciones de Avril Lavigne