Amor De Madre, Aventura (tablatura) (ver 5)

Autor: enzo12 | 15552 visualizaciones

hola gente como esta  ocasión le dejo la tablatura de amor de madre se que es un tema viejo pero saque a oído la misma version que la canción



1 |-11-11-11-13-14-11-11-11-14-13-9-9-9-9-12/13-11-9-9-9-9-12/13-11-----------------------|
2 |----------------------------------------------------------------11-11-11---------------|
3 |---------------------------------------------------------------------------------------|
4 |---------------------------------------------------------------------------------------|
5 |---------------------------------------------------------------------------------------|
6 |---------------------------------------------------------------------------------------|

1 |-11-13-14-11-11-11-11-14-13-9-9-9-9-12/13-11-9-9-9-9-12/13-----------------------------|
2 |----------------------------------------------------------11-11-11---------------------|
3 |-------------------------------------------------------------------11-11-11-9-8-9------|
4 |---------------------------------------------------------------------------------------|
5 |---------------------------------------------------------------------------------------|
6 |---------------------------------------------------------------------------------------|
Calificar esta versión:
Aviso: Este fichero es trabajo propio de su transcriptor y representa su interpretación personal de la canción. El material contenido en esta página es para exclusivo uso privado, por lo que se prohibe su reproducción o retransmisión, así como su uso para fines comerciales.
Más versiones de Amor De Madre, Aventura
Amor De Madre
acordes
Amor De Madre (ver 2)
acordes
Amor De Madre (ver 3)
acordes
Amor De Madre
tablatura
Amor De Madre (ver 2)
tablatura
Amor De Madre (ver 3)
tablatura
Amor De Madre (ver 4)
tablatura
Amor De Madre (ver 5)
tablatura
Amor De Madre
bajo
Descubre más canciones de Aventura