Amor De Madre, Aventura (tablatura) (ver 4)

Autor: Neroy | 21424 visualizaciones

|-0--|
2|-1--|
3|-2--|
4|-2--|    Mi Mayor
5|-0--|
6|-0--|

1|-10-10-10-12-12/13-10---10-10-10-13-10-12-8---8-8-8-12-8-10-8---8-8-8-12-10-----------|
2|----------------------------------------------------------------------------------------10-10-10-|

1|-10-12-12/13-10---10-10-10-13-10-12-8---8-8-8-12-8-10-8---8-8-8-12-10-----------|
2|----------------------------------------------------------------------------------10-10-10-|
3|---------------------------------------------------------------------------------------------10-10-10/12-10-9-|

1|-5--5---5---5---5----5--5---5---5---5---------|
2|-6--------------------6-------------------------|
3|-7--------------------7-------------------------|
3|-7----7---7---7------7----7---7---7-----------|
4|-5--------------------5------------------------|
5|-5--------------------5------------------------|

esta el la cancion amor de madre espero q les guste
esta cancion hay q tocarla rapida
cualkier duda pasen pos mi facebook
https://www.facebook.com/jose.carrillo.5454021?ref=tn_tnmn
Calificar esta versión:
Aviso: Este fichero es trabajo propio de su transcriptor y representa su interpretación personal de la canción. El material contenido en esta página es para exclusivo uso privado, por lo que se prohibe su reproducción o retransmisión, así como su uso para fines comerciales.
Más versiones de Amor De Madre, Aventura
Amor De Madre
acordes
Amor De Madre (ver 2)
acordes
Amor De Madre (ver 3)
acordes
Amor De Madre
tablatura
Amor De Madre (ver 2)
tablatura
Amor De Madre (ver 3)
tablatura
Amor De Madre (ver 4)
tablatura
Amor De Madre (ver 5)
tablatura
Amor De Madre
bajo
Descubre más canciones de Aventura