Beast And The Harlot, Avenged Sevenfold (tablatura) (ver 3)

Autor: flyingv12 | 14660 visualizaciones

inicio:
1|-6-6-5-6-7-8--4-5--5-4-5-6--3-4--4-3-4-5-6-6-7------
2|----------------------------------------------------
3|----------------------------------------------------
4|----------------------------------------------------
5|----------------------------------------------------
6|----------------------------------------------------

(esto se repite 3 veces)
1|0-0-0-0-1-0-0-0-0-2-0-0-0-0-3-0-0-0-0-2-0-0-0-0-1---
2|----------------------------------------------------
3|----------------------------------------------------
4|----------------------------------------------------
5|----------------------------------------------------
6|----------------------------------------------------

(arrastrando el dedo indice del 1er traste al traste 8)

(esto se repite 8 veces)
1|----------------------------------------------------
2|----------------------------------------------------
3|----------------------------------------------------
4|-------3-------5-------6-------5-------3-5----------
5|-------3-------5-------6-------5-------3-5----------
6|-0-0-0-3-0-0-0-5-0-0-0-6-0-0-0-5-0-0-0-3-5----------
Calificar esta versión:
Aviso: Este fichero es trabajo propio de su transcriptor y representa su interpretación personal de la canción. El material contenido en esta página es para exclusivo uso privado, por lo que se prohibe su reproducción o retransmisión, así como su uso para fines comerciales.
Más versiones de Beast And The Harlot, Avenged Sevenfold
Beast And The Harlot
tablatura
Beast And The Harlot (ver 2)
tablatura
Beast And The Harlot (ver 3)
tablatura
Beast And The Harlot (ver 4)
tablatura
Beast And The Harlot (ver 5)
tablatura
Descubre más canciones de Avenged Sevenfold