Beast And The Harlot, Avenged Sevenfold (tablatura) (ver 2)

Autor: aqui_estoy | 40886 visualizaciones

NOTA IMPORTANTE: Debes afinar la guitarra en Dropped D. Si afinabas la guitarra haciendo 
que el 5to espacio de la 6ta cuerda sonara igual que la 5ta cuerda, hazlo ahora con el 7timo. 

Intro:
|--------------------------------------------------------------
|--7~~-7-6-7-9-10--5-6--6-5-6-8--5-6--6-5-6-8--6-6--6-5-6-8-9--
|---------------------------------------------------------------
|---------------------------------------------------------------
|---------------------------------------------------------------
|---------------------------------------------------------------

|---------------------------------------------------------------
|-9--11--9-8-9-11-14--14--16b(17)~------------------------------
|---------------------------------------------------------------
|-------------------------------------------------0-------------
|-------------------------------------------------0-------------
|-------------------------------------------------0-------------
Esto se repite 3 veces si no me equivoco:
|-----------------------------------------------------------------------------|
|-----------------------------------------------------------------------------|
|---------------10~------------12~------------13~------------12~-----------10~|
|---12-12-12-12----12-12-12-12----12-12-12-12----12-12-12-12----12-12-12-12---|
|-----------------------------------------------------------------------------|
|-----------------------------------------------------------------------------|

|-------------------------------------------13-10------------------------------
|----------------------------------10-------------13-10----------10-13---------
|---------------10~---12----13--10----13-12-------------13-10-13---------------
|---12-12-12-12----12----12----------------------------------------------------
|------------------------------------------------------------------------------
|------------------------------------------------------------------------------
Riff Principal                                            2 veces

|--------------------------------------------------------|--------------------
|--------------------------------------------------------|--------------------
|--------------------------------------------------------|--------------------
|---------3----------5----------6----------5----------3-5|-------3------5---6-
|---------3----------5----------6----------5----------3-5|-------3------5---6-
|-0-0-0-0-3--0-0-0-0-5--0-0-0-0-6--0-0-0-0-5--0-0-0-0-3-5|-0-0-0-3--0-0-5-0-6-
                
Riff Princ.
|--------------|----------|---------------------------------------------------
|--------------|----------|---------------------------------------------------
|--------------|----------|---------------------------------------------------
|-8---5-6-7-8--|----------|-8---5-6-7-8-7-8-9-10------------------------------
|-8---5-6-7-8--|----------|-8---5-6-7-8-7-8-9-10------------------------------
|-8---5-6-7-8--|----------|-8---5-6-7-8-7-8-9-10------------------------------
Coro
|----------13----------13----------12----------12----------10----------10-
|----10-13-------10-13----------13----------13----------11----------11----
|-10----------10-------------12----------12----------10----------10-------
|-------------------------14----------14----------12----------12----------
|-------------------------------------------------------------------------
|-------------------------------------------------------------------------
2veces
----------10-10----12----|----------15----------15----------13---------13
-------11-------11----13-|-------15----------15-------10-13------10-13---
----10-------------------|----15----------15-------10---------10---------
-12----------------------|-17----------17--------------------------------
-------------------------|-----------------------------------------------
-------------------------|-----------------------------------------------

----------12----------12----------10----------10-13----------12----------10---
-------13----------13----------11----------11-------11----11----11----11----11
----12----------12----------10----------10-------------10----------10---------
-14----------14----------12----------12---------------------------------------
------------------------------------------------------------------------------
------------------------------------------------------------------------------

-------------------12---------10----------9---------------------|
----11-13-11-10-11----10---10-----10---10----10---10-11-10------|
-10----------------------9-----------9----------9----------9----|
-------------------------------------------------------------11-|
----------------------------------------------------------------|
----------------------------------------------------------------|
Despues subo el resto
Calificar esta versión:
Aviso: Este fichero es trabajo propio de su transcriptor y representa su interpretación personal de la canción. El material contenido en esta página es para exclusivo uso privado, por lo que se prohibe su reproducción o retransmisión, así como su uso para fines comerciales.
Más versiones de Beast And The Harlot, Avenged Sevenfold
Beast And The Harlot
tablatura
Beast And The Harlot (ver 2)
tablatura
Beast And The Harlot (ver 3)
tablatura
Beast And The Harlot (ver 4)
tablatura
Beast And The Harlot (ver 5)
tablatura
Descubre más canciones de Avenged Sevenfold