Alas De Cristal, Avalanch (tablatura) (ver 2)

Autor: angeroXD | 40996 visualizaciones



ALAS DE CRISTAL

F5     C5 D5 Bb5        C5
E------------------------------- 2x
B--6---6-5-----6-5---6-5---6-5--
G----5------7------5-----5------
D-------------------------------
A-------------------------------
E-------------------------------

E----------------------------------------------------------------- 2x
B-----------------------------------------------------------------
G-----------------------------------------------------------------
D-7-7-7-7-7-7-7-7-5-5-5-5-5-5-5-5-3-3-3-3-3-3-3-3-3-3-3-3-3-3-3-3-
A-7-7-7-7-7-7-7-7-5-5-5-5-5-5-5-5-3-3-3-3-3-3-3-3-3-3-3-3-3-3-3-3-
E-5-5-5-5-5-5-5-5-3-3-3-3-3-3-3-3-1-1-1-1-1-1-1-1-1-1-1-1-1-1-1-1-
Pm,,,,,,,,,,,,,,,,,,,,,,,,,,,,,,,,,,,,,,,,,,,,,,,
  Aprendiste a disfrutar
  Las caricias de la vida

*Entra el arpegio con la otra guitarra:
E-5------3-----1---------------------------------------
B---5------3-----1----3------------6------------5------
G-----------------------3--------7---7--------5---5----
D-----7------5-----3------3----7-------7----5-------5--
A----------------------------5------------3------------
E------------------------------------------------------

E------------------------------------------------------------------
B------------------------------------------------------------------
G------------------------------------------------------------------
D-7-7-7-7-7-7-7-7-5-5-5-5-5-5-5-5-3-3-3-3-3-3-3-3-3-3-3-3-3-3-3-3--
A-7-7-7-7-7-7-7-7-5-5-5-5-5-5-5-5-3-3-3-3-3-3-3-3-1-1-1-1-1-1-1-1--
E-5-5-5-5-5-5-5-5-3-3-3-3-3-3-3-3-1-1-1-1-1-1-1-1------------------
Pm,,,,,,,,,,,,,,,,,,,,,,,,,,,,,,,,,,,,,,,,,,,,,,,,,,,,,,,,,,,,,,,
  Sin pararte a pensar el dolor que podria

E-----------------------------------------------
B-----------------------------------------------
G-----------------------------------------------
D-7-7-7-7-7-7-7-7-5-5-5-5-5-5-5-5-3-3-3-3-5-5---
A-5-5-5-5-5-5-5-5-3-3-3-3-3-3-3-3-1-1-1-1-5-5---
E-----------------------------------------3-3---
Pm,,,,,,,,,,,,,,,,,,,,,,,,,,,,,,,
  Ser caer

Estos arpegios los hace una guitarra con sonido limpio sobre el coro
mientras la otra hace las notas con disorsiòn:

  Cm               Ab         Bb
E----8---8---8---8-------------------6---6---6---6--
B------8---8---8-----9---9---9---9-----6---6---6----
G-/8---------------8---8---8---8---7----------------
D---------------------------------------------------
A---------------------------------------------------
E---------------------------------------------------
       Querias  volar   sobre    augurios de un cielo

  Eb
E-----11----11----11--------
B--------11----11----11-----
G-/12-------------------12--
D---------------------------
A---------------------------
E---------------------------
 Gris

  Cm               Ab         Bb
E----8---8---8---8-------------------6---6---6---6--
B------8---8---8-----9---9---9---9-----6---6---6----
G-/8---------------8---8---8---8---7----------------
D---------------------------------------------------
A---------------------------------------------------
E---------------------------------------------------
       Querias  volar         caminar no era digno de

  Eb
E-----11----11----------
B--------11------6---6--
G-/12----------7---7----
D-----------------------
A-----------------------
E-----------------------
  Tiii....    iiiii....

  Cm               Ab         Bb
E----8---8---8---8----------------------------------
B------8---8---8-----9---9---9---9---6---6---6---6--
G-/8---------------8---8---8---8---7---7---7---7----
D---------------------------------------------------
A---------------------------------------------------
E---------------------------------------------------
  ii   Querias  volar        y tu sueño  se  trun-

  G                Ab              Bb           C5  F5
E----3---3---3---3---4---4---4---4---7---7---7---------
B------3---3---3-------4---4---4---7---7---7-----------
G-/4---------------5-----------------------------------
D------------------------------------------------------
A------------------------------------------------------
E------------------------------------------------------
   co     se    quebraron   tus  alas     de   cristal

Se repite el intro mientras se canta ?tus alas de cristal?

(igual que la primera parte):
Siento el viento en tu cara y el gran sol a tus espaldas
Crees que no es digno de ti hacer el camino a pie como uno mas

(CORO)

 Guitarra acustica:
E----------------------------------------------
B-8-6--6-5-3--8-6--5-3---8-6--6-5-3--8-6--5-3--
G----------------------------------------------
D----------------------------------------------
A----------------------------------------------
E----------------------------------------------

Guitarra electrica:
E---------------------------------------------------------------- 2x
B----------------------------------------------------------------
G----------------------------------------------------------------
D----5---5----------5--------------5---5-------------------------
A--3---3---3x---3-3---3-5-3-5x-3-3---3---3-5x-3-5-5-5-5-5-5-5-5--
E----------------------------------------------------------------
                                                Pm,,,,,,,,,,,,,
Punteo sobre el coro:
E---------------------------------------
B---------------------------------------
G-/14-14vv-12-10-14-14v-12-10-12p10-7v--
D---------------------------------------
A---------------------------------------
E---------------------------------------


E----13-------13-------13-------13-------------
B-------13-------13-------13-------13----15----
G-14-------14-------14-------14-------14-------
D----------------------------------------------
A----------------------------------------------
E----------------------------------------------





Calificar esta versión:
Aviso: Este fichero es trabajo propio de su transcriptor y representa su interpretación personal de la canción. El material contenido en esta página es para exclusivo uso privado, por lo que se prohibe su reproducción o retransmisión, así como su uso para fines comerciales.
Más versiones de Alas De Cristal, Avalanch
Alas De Cristal
acordes
Alas De Cristal
tablatura
Alas De Cristal (ver 2)
tablatura
Descubre más canciones de Avalanch