Alas De Cristal, Avalanch (tablatura)

Autor: Raziel | 26050 visualizaciones

Bueno esta es una transcripcion de una muy buena cancion de avalanch estoy seguro en un 99% q esta correcta
Voy a poner las dos guitarras 

Intro:
Guitarra 2
D|-----------------|5-x-x-5-x-x-5-x-x-5-x|7-x-x-7-x-x-7-x-x-7|
A|-3-x-x-3-x-x-3-x-|3-3-3-3-3-3-3-3-3-3-3|5-5-5-5-5-5-5-5-5-5|
E|-1-1-1-1-1-1-1-1-|---------------------|-------------------|

D|3-3-3-3-----5-5-5|
A|1-1-1-1-----3-3-3|     todo esto *2
E|-----------------|

guitarra 1

e|-------|----|-----|---------------|  2 veces
B|6-----6|--5-|-----|-6-5---6-5—6-5-|
G|----5--|----|---7-|-----5-----5---|

Verso 1:

A     G              F
 Aprendiste a disfrutar
A      G             F
 Las caricias de la vida
A      G           F
 Sin pararte a pensar

Guitarra 1:

e|-7-5----5|-5-3----3-|-3-1--|
B|----5—5--|----3—3---|----1—|

F                      A     G     A# G
 El dolor que podría hacer caer

Guitarra 1

e|----1- |-----------|---------------|
B|--1— 1-|-----5—-5--|-----3-----3---|
G|---2-- |--5---5—-5-|--4----4-------|
D|-3---- |-7—7---7---|-5—-5----5----5|
A|------ |-----------|---------------|

Coro
C        G#
 Querías volar
Guitarra 1
e|8-8-8-8|--------|
B|-8-8-8-|-9-9-9-9|
G|-------|8-8-8-8-|

      A#                      D#
 Sobre augurios de un cielo gris
e|-6-6-6-6-6|-11-11-11-11|
B|6-6-6-6-6-|11-11-11-11-|
C       G#
Querías volar
e|8-8-8-8|--------|
B|-8-8-8-|-9-9-9-9|
G|-------|8-8-8-8-|
      A#                 D#  A#
Caminar no era digno de ti
e|-6-6-6-6-6|-11-11-6-6|
B|6-6-6-6-6-|11-11-6-6-|

C       G#
Querías volar
e|8-8-8-8|--------|
B|-8-8-8-|-9-9-9-9|
G|-------|8-8-8-8-|

      A#           G
Y tu sueño se trunco
e|-6-6-6-6|-3-3-3-3|
B|6-6-6-6-|3-3-3-3-|

      G#          A#      C
Se quebraron tus alas de cristal
e|-9-9-9-9-9-9-9|
B|8-8-8-8-8-8-8-|

Intro

Verso 2 (igual las dos guitarras al verso 1)

Siente el viento en tu cara
Y el gran sol a tus espaldas
Crees que no es digno de ti
Hacer el camino a pie como uno más

Coro(igual al coro anterior )

Querías volar
Sobra augurios de un cielo gris
Querías volar
Caminar no era digno de ti
Querías volar
Y tu sueno se trunco
Se quebraron tus alas de cristal

Intro

Parte Acustica:  (aca hay q ponerle oído para saber cuando entra cada guitarra)

Guitarra 1:

e|-------|-----|---------| esto lo hace *4
B|8—6—-6-|-5--3|--8-6-5-3|

Guitarra 2
A|--5-----|--5------|--5---5-------| *2
E|-3—-3—-3|-3--5-5-5|-3—-x—-3—-3—-5|

Coro

Final

Guitarra 2:
D|-----------------|5-x-x-5-x-x-5-x-x-5-x|7-x-x-7-x-x-7-x-x-7|
A|-3-x-x-3-x-x-3-x-|3-3-3-3-3-3-3-3-3-3-3|5-5-5-5-5-5-5-5-5-5|
E|-1-1-1-1-1-1-1-1-|---------------------|-------------------|

D|3-3-3-3-----5-5-5|
A|1-1-1-1-----3-3-3|     todo esto *4
E|-----------------|

Guitarra 1

e|------------|-----------|-----------|--|13-12---13-12---|
B|------------|-----------|-----------|--|------10------10|
G|-12b---12-10|12b---12-10|-12-10-----|--|----------------|
D|------------|-----------|------12b--|--|----------------|

e|13-12----13-12---|---|--------------------|
B|------10-------10|---|13-------13-------13|
G|-----------------|---|10-10-10-10-10-10-10|
D|-----------------|---|--------------------|

e|----------------|----------------|---|--------------------|
B|13-----13-----13|-13----13----13-|---|13-------13-------13|
G|9—-9-9-9—-9-9-9-|-7-7-7-7-7-7-7--|---|10-10-10-10-10-10-10|
D|----------------|----------------|---|--------------------|


e|----------------|----------------|
B|13-----13-----13|-13----13----13-|
G|9—-9-9-9—-9-9-9-|-7-7-7-7-7-7-7--|

Acordes
  A  C  G  G#  D#  A#
e|x-|x-|x-|x--|x--|x--|
B|x-|x-|x-|x--|x--|x--|
G|x-|5-|x-|x--|8--|x--|
D|7-|5-|5-|6--|8--|8--|
A|7-|3-|5-|6--|6--|8--|
E|5-|x-|3-|4--|x--|6--|

Bueno eso es todo cual quier pregunta me dicen por medio del correo

***Un saludo a luisa a pablo y al tocallo vamos con nuestra banda adelante***
***AGUANTE EL METAL***
Calificar esta versión:
Aviso: Este fichero es trabajo propio de su transcriptor y representa su interpretación personal de la canción. El material contenido en esta página es para exclusivo uso privado, por lo que se prohibe su reproducción o retransmisión, así como su uso para fines comerciales.
Más versiones de Alas De Cristal, Avalanch
Alas De Cristal
acordes
Alas De Cristal
tablatura
Alas De Cristal (ver 2)
tablatura
Descubre más canciones de Avalanch