Arranca Corazones, Attaque 77 (tablatura)

Autor: Anónimo | 17360 visualizaciones

Intro

hay una parte despues del coro en la que se usa un punteo corto: 


y pensar que una vez ( se hace el punteo a-5-4-5-6-7---- )

me dijiste terminemos todo....


pero al fin te seguí ( se hace el punteo a-5-4-5-6-7---- )

por un laberinto de espejos rotos...


el punteo principal:

e --------------------------------------------------
b ---------8--------------8---10s12--12-10-----10---
g ---7s9--------11s12s11--------------------12------
d --------------------------------------------------
a --------------------------------------------------
e --------------------------------------------------

En el final de la canción se toca lo siguiente:

e --------------------------------------------------
b --------------------------------------------------
g --------7---7s9--12-11-12-14-7--------------------
d ---7-9----9---------------------------------------
a --------------------------------------------------
e --------------------------------------------------

e --------------------------------------------------
b ---7-8-------------------------------------------- x 8


e ----------10----------------------------------------
b ---7-8-7-----7-8------------------------------------ 

e ----------10--8-7-8-7-8-7-8----(lo ultimo un poco masa rapido)
b ---7-8-7----------------------------------------- 






Comentarios del colaborador: hola espero que les guste esta tablatura. hay partes que se repiten añgunas veces si van a tocar esta tablatura escuchen bien la cancion para que entiendan mejor...

Calificar esta versión:
Aviso: Este fichero es trabajo propio de su transcriptor y representa su interpretación personal de la canción. El material contenido en esta página es para exclusivo uso privado, por lo que se prohibe su reproducción o retransmisión, así como su uso para fines comerciales.
Más versiones de Arranca Corazones, Attaque 77
Arranca Corazones
acordes
Arranca Corazones (ver 2)
acordes
Arranca Corazones (ver 3)
acordes
Arranca Corazones (ver 4)
acordes
Arranca Corazones (ver 5)
acordes
Arranca Corazones (ver 6)
acordes
Arranca Corazones (ver 7)
acordes
Arranca Corazones
tablatura
Arranca Corazones
bajo
Descubre más canciones de Attaque 77