Arranca Corazones, Attaque 77 (bajo)

Autor: Anónimo | 39796 visualizaciones

Aka va esta cancion ke me gusta muxo y ke se la dedico a esa xika
ke despues de todas las cosas lindas ke pasamos, decidio mandar al agua todo.
Espero ke les guste.~

INTRO:-----------

VERSO 1:

"Evitar, resistir..."
G--|---------------------------------------------------|
D--|---------------------------------------------------|
A--|---------------------------------------------------|
E--|---------------------------------------------------|

"Y saver, ke te vas..."
G--|---------------------------------------------------|
D--|---------------------------------------------------|
A--|---------------------------------------------------|
E--|---------------------------------------------------|

"y solo puedo deciiiirrr"

G--|--------------------------------|
D--|------------------------35------|
A--|---555555555555-----35----------|
E--|--------------------------------|

CORO 1:

"Mas, dame un poko mas...."
G--|--------------------------------------------------------------|
D--|--------------------------------------------------------------|
A--|-------------------22222222--55555555--33333333333333/9999----|
E--|-3333333--0000000---------------------------------------------|

G--|--------------------------------------------------------------|
D--|--------------------------------------------------------------|
A--|-------------------22222222--55555555--333333333----5~--------|
E--|-3333333--0000000---------------------------------------------|


aki no se toka nada.
G--|---------------------------------------------------|
D--|---------------------------------------------------|
A--|---------------------------------------------------|
E--|---------------------------------------------------|

VERSO 2:

"Y pensar, ke una vez..."

G--|---------------------------------------------------|
D--|---------------------------------------------------|
A--|--------5~---------2~----2------5~----5------5~----|
E--|---3~-------0-0~----------5~-----------5~----------|

"Pero al fin, te segui..."
G--|---------------------------------------------------|
D--|---------------------------------------------------|
A--|--------5~---------2~----2------5~----5------------|
E--|---3~-------0-0~----------5~-----------5~----------|

"Del ke no puedo saliiiiiir"
G--|--------------------------------|
D--|-----------------------35-------|
A--|---555555555555-----35----------|
E--|--------------------------------|

CORO 2:


"Mas, dame un poko mas...."
G--|--------------------------------------------------------------|
D--|--------------------------------------------------------------|
A--|-------------------22222222--55555555--33333333333333/9999----|
E--|-3333333--0000000---------------------------------------------|

G--|--------------------------------------------------------------|
D--|--------------------------------------------------------------|
A--|-------------------22222222--55555555--333333333----555555555-|
E--|-3333333--0000000---------------------------------------------|

INTERMEDIO:

G--|---------------------------------------------------|
D--|---------------------------------------------------|
A--|-----------2-22222222-------------3----------------|
E--|----3---0----------------------5-----0~------------|

G--|--------------------------------------------------------|
D--|--------------------5------------------------------35---|
A--|-------5------555555-5-----------5-----55555555555------|
E--|-555555-5------------------555555-5---------------------|

CORO 3:

"Mas, dame un poko mas...."
G--|--------------------------------------------------------------|
D--|--------------------------------------------------------------|
A--|-------------------22222222--55555555--33333333333333/9999----|
E--|-3333333--0000000---------------------------------------------|

G--|--------------------------------------------------------------|
D--|-------------------------------------------------------542----|
A--|-------------------22222222--55555555--33333333333333------5--|
E--|-3333333--0000000---------------------------------------------|

"Mas, dame un poko mas...."
G--|----------------------------------------------------------------------|
D--|------------------------------------------------------3/53------------|
A--|-------------------22222222--55555555--33333333333333------53---------|
E--|-3333333--0000000-----------------------------------------------------|

G--|----------------------------------------------------------------------|
D--|----------------------------------------------------------------------|
A--|-------------------22222222--55555555--33333333333333/9999--987-------|
E--|-3333333--0000000----------------------------------------------97-----|

"Mas,.... kiero intoxicarme en vos"
G--|----------------------------------------------------------------------|
D--|----------------------------------------------------------------------|
A--|-------------------22222222--55555555--33333333333333---542-----------|
E--|-3333333--0000000-------------------------------------------5---------|

"Hoy,....kiero intoxicarme en vos...."
G--|----------------------------------------------------------------------|
D--|----------------------------------------------------------------------|
A--|-------------------22222222--55555555--33333333333333/9999----------|
E--|-3333333--0000000-----------------------------------------------------|

"Mas,.... kiero intoxicarme en vos...."
G--|----------------------------------------------------------------------|
D--|----------------------------------------------------------------------|
A--|-------------------22222222--55555555--33333333333333/7777------------|
E--|-3333333--0000000-----------------------------------------------------|

"Hoy,....kiero intoxicarme en vos...."
G--|----------------------------------------------------------------------|
D--|----------------------------------------------------------------------|
A--|-------------------22222222--55555555--3333333333---------------------|
E--|-3333333--0000000-----------------------------------------------------|

"Dame tu droga"
................


Dicen ke la musika es un puente de este mundo con el cielo ^^.
Calificar esta versión:
Aviso: Este fichero es trabajo propio de su transcriptor y representa su interpretación personal de la canción. El material contenido en esta página es para exclusivo uso privado, por lo que se prohibe su reproducción o retransmisión, así como su uso para fines comerciales.
Más versiones de Arranca Corazones, Attaque 77
Arranca Corazones
acordes
Arranca Corazones (ver 2)
acordes
Arranca Corazones (ver 3)
acordes
Arranca Corazones (ver 4)
acordes
Arranca Corazones (ver 5)
acordes
Arranca Corazones (ver 6)
acordes
Arranca Corazones (ver 7)
acordes
Arranca Corazones
tablatura
Arranca Corazones
bajo
Descubre más canciones de Attaque 77